Song name
# A B C D E F G H I J K L M N O P Q R S T U V W X Y Z

Seether - Country Song tab

Artist:  Seether
Song:  Country Song
Tabbed By:  Nick B
Tuning:  Down 1 step

--3b-0------0-3b-0---3b-0---------------3b-0------0-3b-0----------------------0-|
---------3b-----------------3b-0---------------3b--------3b-0-3h5-3-------------|
---------------------------------3b-0-------------------------------3/2-0-2h3---|
--------------------------------------------------------------------------------|
--------------------------------------------------------------------------------|
0------0------0----0------0------0----0------0------0---------------------------|

--3b-0------0-3b-0---3b-0-------------3b-0------0-3b-0------3h5-3--------------|
---------3b-----------------3b---------------3b--------3b-0-------3/2-0-----0--|
-------------------------------3b-0-------------------------------------2h3----|
-------------------------------------------------------------------------------|
-------------------------------------------------------------------------------|
0------0------0----0------0----0----0------0------0----------------------------|

I apologize for my previous intro tab...this one is right!  It came straight from a 
video lesson by Dale Stewart and Shaun Morgan from Seether.
Tap to rate this tab
 
# A B C D E F G H I J K L M N O P Q R S T U V W X Y Z