Song name
# A B C D E F G H I J K L M N O P Q R S T U V W X Y Z

Seether - Gasoline tab

Eb--------------------------|           Well it took me a while but
Bb--------------------------|     I finally finished. It was a bit     
Gb--------------------------|     tougher than I thought it would be
Db--------------------------|     to tab this out by ear. But I did it!
Ab---x--2-2---x-x--x-x-x-x--|     This tab should be 99.9% accurate if not
Eb---x--0-0---x-x--x-x-x-x--|     100% accurate. Have at her! :)






Eb----------x----------------------|
Bb----------x----------------------| play this 3 times 
Gb----------x-2-2-0--0-2-3-3-3-----|
Db----------x-2-2-0--0-2-3-3-3-----|
Ab--x--2-2--x-2-2-0--0-2-3-3-3-----|
Eb--x--0-0-------------------------|



Eb----------x------------------------------| then play this
Bb----------x------------------------------| riff ending
Gb----------x-2-2-0--0-2-5-5-5-5-----------|
Db----------x-2-2-0--0-2-5-5-5-5-----------|
Ab--x--2-2--x-2-2-0--0-2-5-5-5-5-----------|
Eb--x--0-0---------------------------------|





Eb--------------------------------| 
Bb--------------------------------| solo-ish bit part in the verse
Gb---------0--2h3-2p0-------------|
Db----------------------2-2-------|
Ab----------------------2-2-------|
Eb----------------------0-0-------|



Pre Chorus

Eb------------------------|
Bb------------------------|
Gb------------------------|
Db------------------------|
Ab--x--2-2---x-x--x-x-x-x-|
Eb--x--0-0---x-x--x-x-x-x-|



chorus


Eb------------------------------------------| 
Bb------------------------------------------| 
Gb------------------------------------------|
Db--------7\-6-6-6-5-5\-4-4-\-3-3-\---------|
Ab--------5\-4-4-4-3-3\-2-2-\-1-1-\-0-------|
Eb---0-0------------------------------------|




Eb----------------------------------------| 
Bb----------------------------------------| 
Gb---------------------------------x-x----|
Db--------7\-6-6-6-5-5\-4-4-\-3-3--x-x----|
Ab--------5\-4-4-4-3-3\-2-2-\-1-1--x-x----|
Eb---0-0----------------------------------|




Verse 2 with a cry baby pedal effect


|---------------------------------------------------------------------------|
|---------------------------------------------------------------------------|
|9-9-9-9-9-9-9-9-9-9-9-9-9-9-9-9-9-9-9-9-9-9-9-9-9-9-9-9-9-9-9-9-9-7-7-7-7h9|
|---------------------------------------------------------------------------|
|---------------------------------------------------------------------------|
|---------------------------------------------------------------------------|




Play Chorus a few more times then play this riff


Eb--------------------------------|
Bb--------------------------------|Repeat a couple times
Gb--------------------------------|
Db--------------------------------|
Ab--x--2-2---x-x--x-x-x-x--7-7--5-|
Eb--x--0-0---x-x--x-x-x-x--5-5--3-|

Then end on

Eb-----------|
Bb-----------|
Gb-x---------|
Db-x---------|
Ab-x--7-7-7--|
Eb-x--5-5-5--|





Tap to rate this tab
 
# A B C D E F G H I J K L M N O P Q R S T U V W X Y Z