Song name
# A B C D E F G H I J K L M N O P Q R S T U V W X Y Z

Seether - Country Song tab

use a tuner to make sure you are in tune, this tab is correct


INTRO

E-------------------------------------------|
B----6----------^6------6-------------------|
G------7----5------7------7----5------------|
D--------7----7-------------7----7--5-3-----|
A-------------------------------------------|
D-------------------------------------------|



E-----------------------------------------------------|
B----6----------^6------------------------------------|
G------7----5------7------5-----5s7--5----------------|
D--------7----7--------------5----------5s3-----5-6-7-|
A-----------------------------------------------------|
D-----------------------------------------------------|



E-------------------------------------------|
B----6----------^6------6-------------------|
G------7----5------7------7----5------------|
D--------7----7-------------7----7--5-3-----|
A-------------------------------------------|
D-------------------------------------------|



E-----------------------------------------------------|
B----6----------^6--------------6s8--6----------------|
G------7----5------7-------------------7---5-6-7------|
D--------7----7-----------7---5----------7------------|
A-----------------------------------------------------|
D-----------------------------------------------------|

PRE-CHORUS

E---------------------------------------------------|
B---------------------------------------------------|
G---------------------------------------------------|
D--5-5--3--5--x-5h6p5--3---0------------------------|
A--5-5--3--5--x-5h6p5--3---0------------------------|
D--5-5--3--5--x-5h6p5--3---0------------------------|


You figure out this strumming pattern, I'm lazy :P

CHORUS

E------------------------------------------------------------|
B------------------------------------------------------------|
G-------------5s7--------------------------------------------|
D--0--3---5---5s7-----0---3---5----5h6p5--3--0---------------|
A--0--3---5---3s5-----0---3---5----5h6p5--3--0---------------|
D--0--3---5-----------0---3---5----5h6p5--3--0---------------|
Tap to rate this tab
# A B C D E F G H I J K L M N O P Q R S T U V W X Y Z