Song name
# A B C D E F G H I J K L M N O P Q R S T U V W X Y Z

Seether - Naked tab

Band: Seether
Song: Naked
Album: Finding beauty in negative spaces (b-side)
Tuning: Drop C

Hey guys, this is my very first tab i have ever made (not that its that special). With
other words, this wont be any good. The real reason i put this tab up is so that some of
you can give your feedback about it so that everyone, including me, will be able to play 
the song and have fun with it. That, and finally there will be a tab of it :). Anyway,
comment plzzz.

INTRO:
D------55--5-5--55---5-------------------------55--5-5--55-------------------|I
A------66--6-6--66/5-5-------------------------66--6-6--66/5-----------------|I
F----------------------------------------------------------------------------|I
C---0-------------------05--5--5-5--5-5-5-5-0-----------------05--5--5-5-----|I
G---0-------------------05--5--5-5--5-5-5-5-0-----------------05--5--5-5-----|I
C---0-------------------05--5--5-5--5-5-5-5-0-----------------05--5--5-5-----|I

D----------------|I
A----------------|I
F----------------|I
C-5-5-5-5-0------|I
G-5-5-5-5-0------|I
C-5-5-5-5-0------|I

Keep repeating the intro till the chorus (So in other words:(verse=intro)

CHORUS (For ritme, listen to the song)
D--------------------------------|
A--------------------------------|
F---5-----7----------------------|
C---5-----7------5--5-5---3--3-3-|
G---3(x8)-5(x4)--5--5-5---3--3-3-|
C----------------5--5-5---3--3-3-|  (Repeat this two times)

On the fourth (=last) time, do this:
D-------------------------------|
A-------------------------------|
F---5-----7---------------------|
C---5-----7------5------3-------|
G---3(x8)-5(x4)--5------3-------|
C----------------5------3-------|

And after that, immediately start with the intro part again.

Solo:
D-----------------------------------------------------------------------|I
A---10-11-11/12-11---9--9\7---------------------------10-11-11/12-11----|I
F---------------------------7h9-7---------------------------------------|I
C-----------------------------------5h7-----5---------------------------|I
G-----------------------------------------------------------------------|I
C-----------------------------------------------------------------------|I

D---------------------------------------------------------------|I
A-9--9/7--------------------------------------------------------|I
F--------7h9-7--------------------------------------------------|I
C----------------5h7-----10--9-7-5------------------------------|I
G--------------------------------------0350--5/7-5----3-3h5-----|I
C---------------------------------------------------------------|I

D---------------------------------------------------------------|I
A---------------------------------------------------------------|I
F---------------------------------------------------------------|I
C---------------------------------5p3-5--7--5--3----------------|I
G--0----8-7---5-----0350--5/7-5-----------------5---3-----------|I
C---------------------------------------------------------------|I

D-----------------------------------------------------------------|I
A-----------------------------------------------------------------|I
F-----------------------------------------------------------------|I
C---------------------530--753------------------------------530---|I
G---0350--5/7-5-0--870---------5-3h5------0350--5/7-5-0--870------|I
C-----------------------------------------------------------------|I

D---------------------|I
A---------------------|I
F---------------------|I
C---------------------|I
G-5p3-0--3h5-7-5p3h5I-|
C---------------------|I

After that, just do the whole chorus againand then the intro part, till at the end you
play something like this:

D-------5-----|I
A-------6-----|I
F-----0-------|I
C---0---------|I
G-0-----------|I
C-------------|I

Well, this is it folks. Again, im not sure if this is correct,but i hope that some of
you will give me some feedback so i can change it up a bit. Enjoy!

Order:
intro
verse (=intro)
chorus
verse
chorus
solo
chorus
outro (=intro)
Tap to rate this tab
 
# A B C D E F G H I J K L M N O P Q R S T U V W X Y Z