Song name
# A B C D E F G H I J K L M N O P Q R S T U V W X Y Z

Seether - Fine Again tab

this is fine again by seether. hope it's correct.should be.

into 2 parts together
e|------------------------------------------------------------------------|
B|------------------------------------------------------------------------|
G|---------------------------7-7---------------------------------7-7------|
D|-----4-------7--------2----7-7-----------4-------7--------2----7-7------|
A|---4-------7---xx---2---xx-5-5---------4-------7---xx---2---xx-5-5------|
E|-2-----2-5-----xx-0-----xx-5-5-------2-----2-5-----xx-0-----xx-5-5------|guitar 1
 |                                                                        |
e|-------4~----4-4~-----4-5~~~~~~------4---4-5~----5-4~----4--------------|
B|-7---7-----5--------5------------------5-------5-------5---7~~~~~~------|
G|---6--------------------------------------------------------------------|
D|------------------------------------------------------------------------|
A|------------------------------------------------------------------------|
E|------------------------------------------------------------------------|g 2

e|-----------------|
B|-----------------|
G|--7*-------------|
D|------7*---------|
A|-----------------|
E|-----------------|harmonics

e|-----------------|
B|-----------------|
G|-------------7---|
D|-4---7---2---7---|
A|-4---5---2---5---|
E|-2---5---0---5---|verse chords strumming pattern not shown

e|-----------------|
B|-----------------|
G|-----7---4-------|
D|-4---7---4---2---|
A|-4---5---2---2---|
E|-2---5---2---0---|chorus chords strumming pattern not shown


e|-9----10----9----10----|--12----10----|
B|---10----10---10----10-|-----10----10-|
G|-----------------------|--------------|
D|--------------------------------------|play the first part alot and
A|--------------------------------------|listen to song for pattern.
E|--------------------------------------|watch out for 12's

e|-12-12-12-12-12--|
B|-----------------|
G|-----------------|
D|-----------------|
A|-----------------|
E|-----------------|fast

ending
e|-9~~~------------|
B|-----------------|
G|-----------------|
D|-----------------|
A|-----------------|
E|-----------------|

e|-----------------|
B|-----------------|
G|-----------------|
D|-4~--------------|
A|-4~--------------|
E|-2~--------------|


harmonics during verse/ intro lead part during verse sometimes/ etc...
Tap to rate this tab
# A B C D E F G H I J K L M N O P Q R S T U V W X Y Z