Song name
# A B C D E F G H I J K L M N O P Q R S T U V W X Y Z

Seether - Pass Slowly tab

Seether - Pass Slowly (Intro)


Drop C

C|-----------------------------------------------------------------------------|
G|-3-----3-------3-------3-------2-0-------------------------------------------|
C|-----2-------2-------2-------3---2-----2---------2-------2-------2/3-----3---|
F|-------------------------0-----------0---------0-------0-----2-0-------2-----|
A|---------1-------0-------------------------3-------1-------------------------|
D|---------------------------------------------------------------------------1-|

C|----------------------------------------------------------------------------|
G|----------------------------------------------------------------------------|
C|-----3-------3-------3-0-----0-----0-0---------2----------------------------|
F|---2-------2-------2-------0-----0---0--------------------------------------|
A|-----------------3-------------3-----3--------------------------------------|
D|-------0--------------------------------------------------------------------|
Tap to rate this tab
# A B C D E F G H I J K L M N O P Q R S T U V W X Y Z