Song name
# A B C D E F G H I J K L M N O P Q R S T U V W X Y Z

Seether - Fuck It tab

Tab by MischiefMAN95

Tuning Drop D (half step down)

Intro x 6
Eb|---------------------------------------------------------------------|
Bb|---------------------------------------------------------------------|
Gb|---------------------------------------------------------------------|
Db|---------------------------------------------------------------------|
Ab|---9--9--9-10--10-9-7-------9--9--9-10--10/12-12---------------------|
Db|--9--9--9-9---9------------9--9--9-9---9-----------------------------|

Chorus x 2 (second time slightly palm muted)
Eb|-----------------|----|----------------------------------------------|
Bb|-----------------|----|----------------------------------------------|
Gb|-----------------|----|---------------5------------------------------|
Db|-0-1-1-0-6-5-0-8-|----|--0-1-1-0-------------------------------------|
Ab|-0-1-1-0-6-5-0-8-|-X3-|--0-1-1-0-------------------------------------|
Db|-0-1-1-0-6-5-0-8-|----|--0-1-1-0-0000--------------------------------|

Intro x 5
Eb|---------------------------------------------------------------------|
Bb|---------------------------------------------------------------------|
Gb|---------------------------------------------------------------------|
Db|---------------------------------------------------------------------|
Ab|---9--9--9-10--10-9-7-------9--9--9-10--10/12-12---------------------|
Db|--9--9--9-9---9------------9--9--9-9---9-----------------------------|

Chorus x 2 (second time slightly palm muted)
Eb|-----------------|----|----------------------------------------------|
Bb|-----------------|----|----------------------------------------------|
Gb|-----------------|----|---------------5------------------------------|
Db|-0-1-1-0-6-5-0-8-|----|--0-1-1-0-------------------------------------|
Ab|-0-1-1-0-6-5-0-8-|-X3-|--0-1-1-0-------------------------------------|
Db|-0-1-1-0-6-5-0-8-|----|--0-1-1-0-0000--------------------------------|

Bridge(part 1) x 2
Eb|-----------------|----|----------------------------------------------|
Bb|-----------------|----|----------------------------------------------|
Gb|-----------------|----|----------------------------------------------|
Db|-----------------|----|----------------------------------------------|
Ab|-----------------|-X3-|----------------------------------------------|
Db|--000--0--0-113--|----|--000--0--0-4-3-1-----------------------------|

Bridge(part 2) x 2
Eb|-----------------|----|----------------------------------------------|
Bb|-----------------|----|----------------------------------------------|
Gb|-----------------|----|----------------------------------------------|
Db|----0--0----1/3--|----|----0-----------1-----------------------------|
Ab|----0--0----1/3--|-X3-|----0-----------1-----------------------------|
Eb|--000--0--0-1/3--|----|--000--0--0-4-3-1-----------------------------|

Chorus x 2 (second time slightly palm muted)
Eb|-----------------|----|----------------------------------------------|
Bb|-----------------|----|----------------------------------------------|
Gb|-----------------|----|----------------5-----------------------------|
Db|-0-1-1-0-6-5-0-8-|----|--0-1-1-0-------------------------------------|
Ab|-0-1-1-0-6-5-0-8-|-X3-|--0-1-1-0-------------------------------------|
Db|-0-1-1-0-6-5-0-8-|----|--0-1-1-0-0000--------------------------------|

Outro
Eb|---------------------|----|------------------------|----|------------|
Bb|------------------5--|----|--15-15-15-15-16-16-16--|-X4-|------------|
Gb|------------------5--|----|------------------------|----|------------|
Db|-------2-1-2-1----5--|-X4-|------------------------|----|------------|
Ab|-000---2-1-2-1-------|----|------------------------|----|--00--00----|
Db|-000---2-1-2-1-------|----|------------------------|----|--00--00----|

Let me know if it sounds off in some places and i'll edit the tab and put your name in 
the bottom for contribution. THANKS :D
Tap to rate this tab
# A B C D E F G H I J K L M N O P Q R S T U V W X Y Z