Song name
# A B C D E F G H I J K L M N O P Q R S T U V W X Y Z

Seether - Ive Got You Under My Skin tab

Most of this tab is the rhythm guitar to the song. Very simple song to play. Played on 
Drop C#. Its a Seether Frank Sinatra Cover from the album "His Way, Our Way"

Intro: 0 - 0:43
-0---------0--------------|
-0---------0--------------|
-0---------0--------------|
-3---------2--------------|
-3---------0--------------|
-3---------0   Repeat x 6-|

Solo: 0:43 - 1:00
----------------------------------------------|
------14-------14-------15-15-------15-15-15--|
11-12----11-12----11-12-------11-12-----------|
----------------------------------------------|
----------------------------------------------|
----------------------------------------------|   Repeat x 2

Verse: 1:00 - 1:28
-0-0-0-0-0-0-0---0-0-0-0-0-0-0---|
-0-0-0-0-0-0-0---0-0-0-0-0-0-0---|
-0-0-0-0-0-0-0---0-0-0-0-0-0-0---|
-3-3-3-3-3-3-3---2-2-2-2-2-2-2---|
-3-3-3-3-3-3-3---0-0-0-0-0-0-0---|
-3-3-3-3-3-3-3---0-0-0-0-0-0-0---| Repeat x 4

Chorus: 1:28 - 1:57
-0-0-0-0-0-0-0---0-0-0-0-0-0-0---|
-0-0-0-0-0-0-0---0-0-0-0-0-0-0---|
-0-0-0-0-0-0-0---0-0-0-0-0-0-0---|
-3-3-3-3-3-3-3---2-2-2-2-2-2-2---|
-3-3-3-3-3-3-3---0-0-0-0-0-0-0---|
-3-3-3-3-3-3-3---0-0-0-0-0-0-0---| Repeat x 4

Intermission: 1:57 - 2:55
-0---------0--------------|
-0---------0--------------|
-0---------0--------------|
-3---------2--------------|
-3---------0--------------|
-3---------0   Repeat x 8-|

Chorus: 2:55 - 3:53
-0-0-0-0-0-0-0---0-0-0-0-0-0-0---|
-0-0-0-0-0-0-0---0-0-0-0-0-0-0---|
-0-0-0-0-0-0-0---0-0-0-0-0-0-0---|
-3-3-3-3-3-3-3---2-2-2-2-2-2-2---|
-3-3-3-3-3-3-3---0-0-0-0-0-0-0---|
-3-3-3-3-3-3-3---0-0-0-0-0-0-0---| Repeat x 8

Ending: 3:53 - End
-0---------0--------------|
-0---------0--------------|
-0---------0--------------|
-3---------2--------------|
-3---------0--------------|
-3---------0   Repeat x 4-|
Tap to rate this tab
 
# A B C D E F G H I J K L M N O P Q R S T U V W X Y Z