Song name
# A B C D E F G H I J K L M N O P Q R S T U V W X Y Z

Seether - Fade Out tab

This song is played on Drop D. This song is the 8th track of Seether's new album 
"Holding onto Strings Better left to fray". Decently easy song to play. This is 
only the rhythm guitar.


-------------------------------------------------------------------------------
                             Fade Out - Seether
-------------------------------------------------------------------------------
Tabbed by: edfen7
Email:edfen7@gmail.com

Tuning:Drop D


Intro: 0 - 0:20
e|-------------------------------------------------------------------------|
B|-----------------------------------3-3-3-----3-3-3-----------------------|
G|-----------------------------------2-2-2-----2-2-2--4-4-4-----4-4-4------|
D|-4-4-4-x-x-4-4-4--4-4-4-x-x-4-4-4--0-0-0-x-x-0-0-0--4-4-4-x-x-4-4-4--2---|
A|-4-4-4-x-x-4-4-4--4-4-4-x-x-4-4-4--0-0-0-x-x-0-0-0--2-2-2-x-x-2-2-2--2---|
D|-4-4-4-x-x-4-4-4--4-4-4-x-x-4-4-4--0-0-0-x-x-0-0-0--------x-x--------2---|Repeat x2


Verse: 0:20 - 0:41
e|-------------------------------------------------------------------------------|
B|-----------------------------------------3-3-3-----3-3-3-----------------------|
G|-----------------------------------------2-2-2-----2-2-2--4-4-4-----4-4-4------|
D|-4-4-4-x-x-4-4-4--4-4-4-x-x-4-4-4--4-3-2-0-0-0-x-x-0-0-0--4-4-4-x-x-4-4-4--2---|
A|-4-4-4-x-x-4-4-4--4-4-4-x-x-4-4-4--4-3-2-0-0-0-x-x-0-0-0--2-2-2-x-x-2-2-2--2---|
D|-4-4-4-x-x-4-4-4--4-4-4-x-x-4-4-4--4-3-2-0-0-0-x-x-0-0-0--------x-x--------2---|Repeat x2


Pre-Chorus: 0:41 - 0:51
e|-------------------------------|
B|-------------------------------|
G|----------------------4---4----|
D|---4----4---4---4----4-4-4--2--|
A|--4--4-4-4-4--------2---2---2--|
D|-4----4---4-----------------2--|


Chorus: 0:51 - 1:13
e|--------------------------------------------------------------|
B|-------------------------------------------3-3-3-3-3-3-3------|
G|-4-4-4-4-4-4-4-----------------------------2-2-2-2-2-2-2------|
D|-4-4-4-4-4-4-4-4-4-4-4-4-4-4-5-5-5-5-5-5-5-0-0-0-0-0-0-0------|
A|-2-2-2-2-2-2-2-4-4-4-4-4-4-4-5-5-5-5-5-5-5-0-0-0-0-0-0-0------|
D|---------------4-4-4-4-4-4-4-5-5-5-5-5-5-5-0-0-0-0-0-0-0------|

e|--------------------------------------------------------------|
B|--------------------------------------------------------------|
G|-4-4-4-4-4-4-4------------------------------------------------|
D|-4-4-4-4-4-4-4-4-4-4-4-4-4-4-5-5-5-5-5-5-5-5-5-5-5-5-5-5------|
A|-2-2-2-2-2-2-2-4-4-4-4-4-4-4-5-5-5-5-5-5-5-5-5-5-5-5-5-5------|
D|---------------4-4-4-4-4-4-4-5-5-5-5-5-5-5-5-5-5-5-5-5-5------|


Post-Chorus: 1:13 - 1:23
e|-------------------------------------------------------------------------------|
B|-----------------------------------------3-3-3-----3-3-3-----------------------|
G|-----------------------------------------2-2-2-----2-2-2--4-4-4-----4-4-4------|
D|-4-4-4-x-x-4-4-4--4-4-4-x-x-4-4-4--4-3-2-0-0-0-x-x-0-0-0--4-4-4-x-x-4-4-4--2---|
A|-4-4-4-x-x-4-4-4--4-4-4-x-x-4-4-4--4-3-2-0-0-0-x-x-0-0-0--2-2-2-x-x-2-2-2--2---|
D|-4-4-4-x-x-4-4-4--4-4-4-x-x-4-4-4--4-3-2-0-0-0-x-x-0-0-0--------x-x--------2---|


Verse: 1:23 - 1:44
e|-------------------------------------------------------------------------------|
B|-----------------------------------------3-3-3-----3-3-3-----------------------|
G|-----------------------------------------2-2-2-----2-2-2--4-4-4-----4-4-4------|
D|-4-4-4-x-x-4-4-4--4-4-4-x-x-4-4-4--------0-0-0-x-x-0-0-0--4-4-4-x-x-4-4-4------|
A|-4-4-4-x-x-4-4-4--4-4-4-x-x-4-4-4--------0-0-0-x-x-0-0-0--2-2-2-x-x-2-2-2------|
D|-4-4-4-x-x-4-4-4--4-4-4-x-x-4-4-4--------0-0-0-x-x-0-0-0--------x-x------------|

e|-------------------------------------------------------------------------------|
B|-----------------------------------------3-3-3-----3-3-3-----------------------|
G|-----------------------------------------2-2-2-----2-2-2--4-4-4-----4-4-4------|
D|-4-4-4-x-x-4-4-4--4-4-4-x-x-4-4-4--4-3-2-0-0-0-x-x-0-0-0--4-4-4-x-x-4-4-4--2---|
A|-4-4-4-x-x-4-4-4--4-4-4-x-x-4-4-4--4-3-2-0-0-0-x-x-0-0-0--2-2-2-x-x-2-2-2--2---|
D|-4-4-4-x-x-4-4-4--4-4-4-x-x-4-4-4--4-3-2-0-0-0-x-x-0-0-0--------x-x--------2---|


Pre-Chorus: 01:44 - 1:56
e|-------------------------------|
B|-------------------------------|
G|----------------------4---4----|
D|---4----4---4---4----4-4-4--2--|
A|--4--4-4-4-4--------2---2---2--|
D|-4----4---4-----------------2--|


Chorus: 1:56 - 2:18
e|--------------------------------------------------------------|
B|-------------------------------------------3-3-3-3-3-3-3------|
G|-4-4-4-4-4-4-4-----------------------------2-2-2-2-2-2-2------|
D|-4-4-4-4-4-4-4-4-4-4-4-4-4-4-5-5-5-5-5-5-5-0-0-0-0-0-0-0------|
A|-2-2-2-2-2-2-2-4-4-4-4-4-4-4-5-5-5-5-5-5-5-0-0-0-0-0-0-0------|
D|---------------4-4-4-4-4-4-4-5-5-5-5-5-5-5-0-0-0-0-0-0-0------|

e|--------------------------------------------------------------|
B|--------------------------------------------------------------|
G|-4-4-4-4-4-4-4------------------------------------------------|
D|-4-4-4-4-4-4-4-4-4-4-4-4-4-4-5-5-5-5-5-5-5-5-5-5-5-5-5-5------|
A|-2-2-2-2-2-2-2-4-4-4-4-4-4-4-5-5-5-5-5-5-5-5-5-5-5-5-5-5------|
D|---------------4-4-4-4-4-4-4-5-5-5-5-5-5-5-5-5-5-5-5-5-5------|


Solo (Rhythm Guitar ONLY): 2:18 - 2:57

e|--------------------------------------------------------------|
B|------------------------------3-3-3-3-3-3-3-3-3-3-3-3-3-3-----|
G|------------------------------2-2-2-2-2-2-2-2-2-2-2-2-2-2-----|
D|-4-4-4-4-4-4-4-4-4-4-4-4-4-4--0-0-0-0-0-0-0-0-0-0-0-0-0-0-----|
A|-4-4-4-4-4-4-4-4-4-4-4-4-4-4--0-0-0-0-0-0-0-0-0-0-0-0-0-0-----|
D|-4-4-4-4-4-4-4-4-4-4-4-4-4-4--0-0-0-0-0-0-0-0-0-0-0-0-0-0-----|Repeat x4


Chorus: 2:57 - 3:40
e|--------------------------------------------------------------|
B|-------------------------------------------3-3-3-3-3-3-3------|
G|-4-4-4-4-4-4-4-----------------------------2-2-2-2-2-2-2------|
D|-4-4-4-4-4-4-4-4-4-4-4-4-4-4-5-5-5-5-5-5-5-0-0-0-0-0-0-0------|
A|-2-2-2-2-2-2-2-4-4-4-4-4-4-4-5-5-5-5-5-5-5-0-0-0-0-0-0-0------|
D|---------------4-4-4-4-4-4-4-5-5-5-5-5-5-5-0-0-0-0-0-0-0------|Repeat x3

e|--------------------------------------------------------------|
B|--------------------------------------------------------------|
G|-4-4-4-4-4-4-4------------------------------------------------|
D|-4-4-4-4-4-4-4-4-4-4-4-4-4-4-5-5-5-5-5-5-5-5-5-5-5-5-5-5------|
A|-2-2-2-2-2-2-2-4-4-4-4-4-4-4-5-5-5-5-5-5-5-5-5-5-5-5-5-5------|
D|---------------4-4-4-4-4-4-4-5-5-5-5-5-5-5-5-5-5-5-5-5-5------|


Ending: 3:40 - End
e|-------------------------------------------------------------------------------|
B|-------------------------------------------------------------------------------|
G|-------------------------------------------------------------------------------|
D|-4-4-4-x-x-4-4-4--4-4-4-x-x-4-4-4----4-4-4-x-x-4-4-4--4-4-4-x-x-4-4-4---4-4-4--|
A|-4-4-4-x-x-4-4-4--4-4-4-x-x-4-4-4----4-4-4-x-x-4-4-4--4-4-4-x-x-4-4-4---4-4-4--|
D|-4-4-4-x-x-4-4-4--4-4-4-x-x-4-4-4----4-4-4-x-x-4-4-4--4-4-4-x-x-4-4-4---4-4-4--|
Tap to rate this tab
# A B C D E F G H I J K L M N O P Q R S T U V W X Y Z