Song name
# A B C D E F G H I J K L M N O P Q R S T U V W X Y Z

Seether - Sympathetic tab

Help us improve GuitareTab! Take a short survey!
 Band: Seether
 Song: Sympathetic
 Tuning: Drop D

 intro:
 |-----0------0---|\
 |---3---2---3--2-| \
 |-2-------2------|  \ Repeat during
 |----------------|  / intro
 |----------------| /
 |----------------|/

 |-----0---------0--------0------0--|\
 |---3-3------10-10-----8-8----8-8--| \
 |-2---2----9----9----7---7--7---7--|  \ Played in the fourground, in the
 |----------------------------------|  / intro and verse
 |----------------------------------| /
 |----------------------------------|/

 Verse

 |-0-------------|\
 |-3-------------| \ 
 |-2----9----7---|  \ Repeat during
 |-0----7----5---|  / Verse
 |-0----7----5---| /
 |-0----7----5---|/

 |-0-------------|\
 |-3----10---8---| \ 
 |-2----9----7---|  \ Repeat during
 |-0----7----5---|  / Verse (background)
 |-0----7----5---| /
 |-0----7----5---|/

 Chorus (?)

 |---------------|\
 |-3-------------| \
 |-2---4---7-----|  \ Repeat during
 |-0---4---5-----|  / Chorus
 |-0---2---5-----| /
 |-0-------5-----|/

 |-0-------------|\
 |-3----10---8---| \ 
 |-2----9----7---|  \ Repeat during
 |-0----7----5---|  / Chorus (background)
 |-0----7----5---| /
 |-0----7----5---|/

Bridge thingie (the same old feeling is taking over....)

                    Last time
 |-----------------|-----------------------------------|
 |-----------------|---------3/--10/--8~--3/--10/--8~--|
 |-4---7---7---9---|-4---7---2/---9/--7~--2/---9/--7~--|
 |-2---5---7---7---|-2---5-----------------------------|
 |-2---5---5---7---|-2---5-----------------------------|
 |-2---5-------7---|-2---5-----------------------------|




Related for Sympathetic tab