Song name
# A B C D E F G H I J K L M N O P Q R S T U V W X Y Z

Seether - 69 Tea tab

----------------------------------------------------------------------------
                             69 Tea - Saron Gas/Seether
----------------------------------------------------------------------------
Tabbed by: Chayce Davis
E-mail: nbnikobellic80@gmail.com

Tuning: Eb-G#-C#-F#-Bb-Eb

Verse Riff/Intro:
e|-------------------------------------------------------|
B|-------------------------------------------------------|
G|---------7--77--------------77h8p7---------------------|
D|----5-5-x7--77-xx--7-7-x--8----------------------------|
A|----5-5-x5--55-xx--7-7-x--8----------------------------|
E|----3-3-x------xx--5-5-x--6----------------------------|

Chorus:                                       2nd Time End
e|-------------------------------------------|------------|
B|-------------------------------------------|------------|
G|--9-9------------5-5-5---------------------|------------|
D|--9-9--9-9--7-7--5-5-5---------------------|--x---------|
A|--7-7--9-9--5-5--3-3-3---------------------|--x---------|
E|-------7-7--5-5----------------------------|--x---------|

Bridge/Outro:
e|-----------------------------------------------------------|
B|-----------------------------------------------------------|
G|--5-5-5-5-5------------------------------------------------|
D|--5-5-5-5-5----6-6---3-3-3---------------------------------|
A|--3-3-3-3-3----6-6---3-3-3---------------------------------|
E|---------------4-4---1-1-1---------------------------------|

Solo:
Played 3 Times like this
e|----------------------------------------------------------------|
B|--15---15---15---17---18---17-----------------------------------|
G|----14---14---14---14---14---14---------------------------------|
D|----------------------------------------------------------------|
A|----------------------------------------------------------------|
E|----------------------------------------------------------------|

4th time on solo
e|----------------------------------------------------------------|
B|--15---15---15---17---18---17-----------------------------------|
G|----14---14---14---14---14---14---------------------------------|
D|---------------------------------14~----------------------------|
A|----------------------------------------------------------------|
E|----------------------------------------------------------------|

Song Arrangement:
Intro
Verse
Chorus
Verse 2
Chorus
Bridge
Solo
Chorus
Outro
************************************

| /   slide up
| \   slide down
| h   hammer-on
| p   pull-off
| ~   vibrato
| +   harmonic
| x   Mute note
| b   Bend
| pb  Pre-bend
| br  Bend release
| pbr Pre-bend release
| brb Bend release bend

************************************
Tap to rate this tab
 
# A B C D E F G H I J K L M N O P Q R S T U V W X Y Z