Song name
# A B C D E F G H I J K L M N O P Q R S T U V W X Y Z

Seether - Safe To Say Ive Had Enough tab

Intro & Verse

D--------------------------------------------------|
A--------------------------------------------------|
F----------0----------0---------0------------------|   x3
C-----2-2-0------2-2-0-----2-2-0--3-3-3-3-3-3-3----|
G----2-2--------2-2-------2-2-----3-3-3-3-3-3-3----|
C-0h2--------0h2-------0h2--------3-3-3-3-3-3-3----|

Pre-chorus

D--------------------------------------------------|
A--------------------------------------------------|
F----------------------------10--------------------|   x3
C---10h12-12-12-12-12-10---10----------------------|
G--------------------------------------------------|
C--------------------------------------------------|

Still Pre-chorus

D--------------------------------------------------|
A--------------------------------------------------|
F--------------------------------------------------|   x1
C---10h13-13-13-13-13------------------------------|
G--------------------------------------------------|
C--------------------------------------------------|

Chorus

D--------------------------------------------------|
A--------------------------------------------------|
F--------------------------------------------------|   x2
C-2-2-2-0-0-0-2-2-2-0-0-5-2-2-2-5-5-5--------------|
G-2-2-2-0-0-0-2-2-2-0-0-5-2-2-2-3-3-3--------------|
C-2-2-2-0-0-0-2-2-2-0-0-5-2-2-2-3-3-3--------------|

Post Chorus/Pre Verse

D--------------------------------------------------|
A--------------------------------------------------|
F---10h12-12-12-12b-12-10v-------------------------|   x2
C--------------------------------------------------|
G--------------------------------------------------|
C--------------------------------------------------|

2nd Verse

D--------------------------------------------------|
A--------------------------------------------------|
F----------0----------0---------0------------------|   x3
C-----2-2-0------2-2-0-----2-2-0--3-3-3-3-3-3-3----|
G----2-2--------2-2-------2-2-----3-3-3-3-3-3-3----|
C-0h2--------0h2-------0h2--------3-3-3-3-3-3-3----|

2nd Chorus

D--------------------------------------------------|
A--------------------------------------------------|
F--------------------------------------------------|   x2
C-2-2-2-0-0-0-2-2-2-0-0-5-2-2-2-5-5-5--------------|
G-2-2-2-0-0-0-2-2-2-0-0-5-2-2-2-3-3-3--------------|
C-2-2-2-0-0-0-2-2-2-0-0-5-2-2-2-3-3-3--------------|

Bridge

D--------------------------------------------------|
A--------------------------------------------------|
F--------------------------------------------------|   x4
C-7-7-7-5-5-5-8-8-8-5-5-10-------------------------|
G-7-7-7-5-5-5-8-8-8-5-5-10-------------------------|
C-7-7-7-5-5-5-8-8-8-5-5-10-------------------------|

Final Verse

D--------------------------------------------------|
A--------------------------------------------------|
F----------0----------0---------0------------------|   x1
C-----2-2-0------2-2-0-----2-2-0--3-3-3-3-3-3-3----|
G----2-2--------2-2-------2-2-----3-3-3-3-3-3-3----|
C-0h2--------0h2-------0h2--------3-3-3-3-3-3-3----|

3rd Chorus

D--------------------------------------------------|
A--------------------------------------------------|
F--------------------------------------------------|   x2
C-2-2-2-0-0-0-2-2-2-0-0-5-2-2-2-5-5-5--------------|
G-2-2-2-0-0-0-2-2-2-0-0-5-2-2-2-3-3-3--------------|
C-2-2-2-0-0-0-2-2-2-0-0-5-2-2-2-3-3-3--------------|

Final Chorus

D-------------------------------------------------------|
A-------------------------------------------------------|
F-------------------5-----------------------------------|   x2
C-2-0-2-5-0-3-2-0-2-X-5-7-2-0-2-5-0-3-6-6-6-6-6-5-5-5-5-|
G-2-0-2-5-0-3-2-0-2-5-5-7-2-0-2-5-0-3-6-6-6-6-6-5-5-5-5-|
C-2-0-2-5-0-3-2-0-2-X-5-7-2-0-2-5-0-3-4-4-4-4-4-3-3-3-3-|
Tap to rate this tab
 
# A B C D E F G H I J K L M N O P Q R S T U V W X Y Z