Song name
# A B C D E F G H I J K L M N O P Q R S T U V W X Y Z

Seether - Sold Me tab

Seether
Sold Me

Tuning: drop D 1/2 step down 
tabbed by: t00mucHtH0t 
that's my AIM sn if you have any questions

 /  slide up
 \  slide down
 h  hammer-on
 p  pull-off
 *  harmonic


Intro:

D#|------------------------------------------------|
A#|------------------------------------------------|
F#|----------------------------------------------8-|
C#|-7h8p7h8p7----7h8p7h8p7----7h8p7h8p7----7h8p0-8-| (x2)
G#|----------------------------------------------6-|
C#|------------------------------------------------|

D#|-----------------------------------------------------|
A#|--------------------------------------------------8--|
F#|--------------------------------------------------8--| (x4)	
C#|--------------------------------------------------6--| 
G#|-0h1-0h1-xx-x-0h1-0h1-xx-x-0h1-0h1-xx-x-0h1-0h1-6----|			
C#|-0h1-0h1-xx-x-0h1-0h1-xx-x-0h1-0h1-xx-x-0h1-0h1-6----|


Verse: 

D#|-----------------|
A#|-----------------|
F#|-------------5*--| (x4)
C#|-7h8p7h8p7-------| 
G#|-----------------|
C#|-----------------|

D#|-----|
A#|-----|
F#|---8-| (final time)
C#|---8-| 
G#|-0-6-|
C#|-0---|

D#|-----------------------------------------------------|
A#|--------------------------------------------------8--|
F#|--------------------------------------------------8--| (x4)	
C#|--------------------------------------------------6--| 
G#|-0h1-0h1-xx-x-0h1-0h1-xx-x-0h1-0h1-xx-x-0h1-0h1-6----|			
C#|-0h1-0h1-xx-x-0h1-0h1-xx-x-0h1-0h1-xx-x-0h1-0h1-6----|


Chorus: 

D#|-----------------------------------|	      |-----|	
A#|-----------------------------------|	      |-----|
F#|-----------------------------------| (x4)  |-----| (end chorus)
C#|-5-5555-5\3-3333-3/8-888-88888888--|	      |-8\0-|
G#|-5-5555-5\3-3333-3/8-888-88888888--|	      |-8\0-|
C#|-5-5555-5\3-3333-3/8-888-88888888--|	      |-8\0-|



D#|-----------------------------------------------------|
A#|--------------------------------------------------8--|
F#|--------------------------------------------------8--|	
C#|--------------------------------------------------6--| 
G#|-0h1-0h1-xx-x-0h1-0h1-xx-x-0h1-0h1-xx-x-0h1-0h1-6----|			
C#|-0h1-0h1-xx-x-0h1-0h1-xx-x-0h1-0h1-xx-x-0h1-0h1-6----|

D#|-----------------------------------------------------|
A#|-----------------------------------------------------|
F#|-----------------------------------------------------| 	
C#|-----------------------------------------------6-----| 
G#|-0h1-0h1-xx-x-0h1-0h1-xx-x-0h1-0h3-0h1-0h3-0h1-6-----|			
C#|-0h1-0h1-xx-x-0h1-0h1-xx-x-0h1-0h3-0h1-0h3-0h1-6-----|
				
			      ^(slight palm mute)^

Bridge:

D#|--------------------------------------|
A#|-----------------------5*-------0-----|
F#|-------------------------5*-----0-----| (x2)
C#|---------7*---------------------------|
G#|-5-6-5-0---7*--5-6-5-0------5-6-------|
C#|--------------------------------------|
    (palm mute)

D#|---------------------------------------|
A#|---------------------------------------|
F#|---8-7---15-12--8-7--15-12-15-15-15----|(x8)
C#|---x-x----x--x--x-x---x--x--x--x--x----|
G#|-0-6-5-0-13-14--6-5--13-14-17-17-17----|
C#|-0-----0-------------------------------|
    	
Chrous
Tap to rate this tab
 
# A B C D E F G H I J K L M N O P Q R S T U V W X Y Z