Song name
# A B C D E F G H I J K L M N O P Q R S T U V W X Y Z

Seether - Love Her tab

Song: Love Her
Artist: Seether
Album: Disclaimer II
Tuning: Standard

Intro
|-----5------8~~-----------3~~-----------------|
|-----5------8~~-----------3~~--------5-6p5----|
|-----7------10~-------------------------------|
|-----7------10~-------------------7-----------|
|--5----0-8--------7-5-0---3~~--0--5-----------|
|----------------------------------------------|

|-----5------8~~-----------3~~----------6p5----|
|-----5------8~~-----------3~~--------5--------|
|-----7------10~-------------------------------|
|-----7------10~-------------------7-----------|
|--5----0-8--------7-5-0---3~~--0--5-----------|
|----------------------------------------------|

Verse 1 
|-----5------8~~-----------3~~-----------------|
|-----5------8~~-----------3~~--------5-6p5----|
|-----7------10~-------------------------------| 8x
|-----7------10~-------------------7-----------|
|--5----0-8--------7-5-0---3~~--0--5-----------|
|----------------------------------------------|

Chorus
|---------------------------|
|---------------------------|
|---------------------------| 2x
|--5--3--5--8--5--3--8--5---|
|--5--3--5--8--5--3--8--5---|
|--3--1--3--6--3--1--6--3---|

(These are the chords used; just figure out the strum pattern)

After Chorus Repeat Intro Once

Verse 2 (Same As Verse 1)

After Verse 2 Play Chorus 

Solo
|--------8~~-----------------------8~~--8-8-----|
|-5h6-5--8~~-8-5-6-5-3~~--3/5h6-5--8~~-8-8-10~~-|
|-----------------------------------------------|
|-----------------------------------------------|
|-----------------------------------------------|
|-----------------------------------------------|
(Guitar 2 Plays The Verse Riff Under The Solo)


Verse 3 
|-----5------8~~-----------3~~-----------------|
|-----5------8~~-----------3~~--------5-6p5----|
|-----7------10~-------------------------------| 4x
|-----7------10~-------------------7-----------|
|--5----0-8--------7-5-0---3~~--0--5-----------|
|----------------------------------------------|

Final Chorus
**Play the same as other chorus, but don't play the first part where Shaun sings "You
Could Love Her"...and start in when he says "If You Pay". Play that part the same as
you would have in the previous Choruses. Then just repeat the Chorus riff until you get
to the outro when Shaun stops singing.

Outro
|-----5------8~~-----------3~~-----------------|
|-----5------8~~-----------3~~--------5-6p5----|
|-----7------10~-------------------------------|
|-----7------10~-------------------7-----------|
|--5----0-8--------7-5-0---3~~--0--5-----------|
|----------------------------------------------|

|-----5------8~~-----------3~~----------|
|-----5------8~~-----------3~~----------|
|-----7------10~-------------------7~~--|
|-----7------10~-------------------7~~--|
|--5----0-8--------7-5-0---3~~--0--5~~--|
|---------------------------------------|
Tap to rate this tab
# A B C D E F G H I J K L M N O P Q R S T U V W X Y Z