Song name
# A B C D E F G H I J K L M N O P Q R S T U V W X Y Z

Seether - Skin The Tiger tab

Artist: Seether (Saron Gas)
Song: Skin The Tiger (Unreleased)
Tuning: Dropped D

KEY       X - PALM MUTE
	  D - STRUM DOWN
	  ^ - STRUM UP
          * - LET RING

(FEEDBACK)

Intro
|---------------------|
|---------------------|
|---------------------|X 8
|0-0-10--0-0-0-0--1-3-|
|0-0-10--0-0-0-0--1-3-|
|0-0-10--0-0-0-0--1-3-|
 - -     - - - - 
         D ^ D ^ 

Verse 1
|-------------------------------|
|-------------------------------|
|-------------------------------|
|0-0-----0-0-10--0-0-0-0--1-3---|X 4
|0-0-----0-0-10--0-0-0-0--1-3---|
|0-0-----0-0-10--0-0-0-0--1-3---|
 - -     - -     - - - - 
	         D ^ D ^
 
Chorus 1
|-------------------|
|-------------------|
|-------------------|
|0-0-0-0--12--10--3-|X 4
|0-0-0-0--12--10--3-| 
|0-0-0-0--12--10--3-|
 - - - -
 D ^ D ^

|---------------------|
|---------------------|
|---------------------|X 4
|0-0-10--0-0-0-0--1-3-|
|0-0-10--0-0-0-0--1-3-|
|0-0-10--0-0-0-0--1-3-|
 - -     - - - - 
	 D ^ D ^	 

Verse 2
|-------------------------------|
|-------------------------------|
|-------------------------------|
|0-0-----0-0-10--0-0-0-0--1-3---|X 4
|0-0-----0-0-10--0-0-0-0--1-3---|
|0-0-----0-0-10--0-0-0-0--1-3---|
 - -     - -     - - - -
		 D ^ D ^

Chorus 2
|-------------------|
|-------------------|
|-------------------|
|0-0-0-0--12--10--3-|X 4
|0-0-0-0--12--10--3-|
|0-0-0-0--12--10--3-|
 - - - -
 D ^ D ^


|---------------------|
|---------------------|
|---------------------|
|0-0-10--0-0-0-0--1-3-|X4
|0-0-10--0-0-0-0--1-3-|
|0-0-10--0-0-0-0--1-3-|
 - -     - - - -
         D ^ D ^

|--------|
|--------|
|--------|
|0-0-10--|
|0-0-10--|
|0-0-10--|
 - - *

(Bass Solo)
|-------------|
|-------------|
|-------------|x 8
|0--13-12--10-|

(silence)

Then Kick In With Guitar 
|-------------|
|-------------|
|-------------|
|0--13-12--10-|X 8
|0--13-12--10-|
|0--13-12--10-|

Verse 3
|-------------------------------------|
|-------------------------------------|
|-------------------------------------|
|0-0----0---0--0-0-10--0-0-0-0--1-3---|
|0-0----0---0--0-0-10--0-0-0-0--1-3---|
|0-0----0---0--0-0-10--0-0-0-0--1-3---|
 - -    -   -  - -     - - - -
		       D ^ D ^	

|-------------------------------|
|-------------------------------|
|-------------------------------|
|0-0-----0-0-10--0-0-0-0--1-3---|
|0-0-----0-0-10--0-0-0-0--1-3---|
|0-0-----0-0-10--0-0-0-0--1-3---|
 - -     - -     - - - -
 		 D ^ D ^

|-------------------------------------|
|-------------------------------------|
|-------------------------------------|
|0-0----0---0--0-0-10--0-0-0-0--1-3---|
|0-0----0---0--0-0-10--0-0-0-0--1-3---|
|0-0----0---0--0-0-10--0-0-0-0--1-3---|
 - -    -   -  - -     - - - -
 		       D ^ D ^

|-------------------------------|
|-------------------------------|
|-------------------------------|
|0-0-----0-0-10--0-0-0-0--1-3---|
|0-0-----0-0-10--0-0-0-0--1-3---|
|0-0-----0-0-10--0-0-0-0--1-3---|
 - -     - -     - - - -
  		 D ^ D ^

Chorus 3
|--------------------|
|--------------------|
|--------------------|
|0-0-0-0--12--10--3-|X 8
|0-0-0-0--12--10--3-|
|0-0-0-0--12--10--3-|
 - - - -
 D ^ D ^

Outro
|---------------------|
|---------------------|
|---------------------|X 4
|0-0-10--0-0-0-0--1-3-|
|0-0-10--0-0-0-0--1-3-|
|0-0-10--0-0-0-0--1-3-|
 - -     - - - -
         D ^ D ^ 

|--------|
|--------|
|--------|
|0-0-10--|
|0-0-10--|
|0-0-10--|
 - - *

This unreleased song dates back to when the band was recording under the name Saron Gas
in South Africa. You can find this song at certain fansites for download for free. (A
download is available at www.seether-online.com. It's legal, too.)
Tap to rate this tab
# A B C D E F G H I J K L M N O P Q R S T U V W X Y Z