Song name
# A B C D E F G H I J K L M N O P Q R S T U V W X Y Z

Seether - World Falls Away tab

e||--------------------------------------13h14-------|
B||----------------------------------14--------------|
G||-------------15----15--13--13-13------------------|
D||--13--13-13-----13--------------------------------|
A||--------------------------------------------------|
E||--------------------------------------------------|


   --------------------------------------14p13-------|
   ----------------------------------14--------h13---|
   -------------15----15--13--13-13------------------|
   --13--13-13-----13--------------------------------|
   --------------------------------------------------|
   --------------------------------------------------|


   --------------------------------------13h14-------|
   ----------------------------------14--------------|
   -------------15----15--13--13-13------------------|
   --13--13-13-----13--------------------------------|
   --------------------------------------------------|
   --------------------------------------------------|


   --------------------------------------------------|
   --------------------------------------------------|
   -------------15----15--13^---(slowly bend)--------|
   --13--13-13-----13--------------------------------|
   --------------------------------------------------|
   --------------------------------------------------|
Tap to rate this tab
 
# A B C D E F G H I J K L M N O P Q R S T U V W X Y Z