Song name
# A B C D E F G H I J K L M N O P Q R S T U V W X Y Z

Seether - Simplest Mistake tab

Seether
"Simplest Mistake"
Karma and Effect

Tuning:Drop D tuned down 1/2 step (Db)

Intro:
Guitar 1

Eb------------------------------------------------------------|
Bb------------------------------------------------------------|
Gb------------------------------------------------------------|(4x)
Db------------------------------------------------------5-----|
Ab------5---3-0-------5---3-0-------5---3-0-------5---3-------|
Eb--0-3---0-------0-3---0-------0-3---0-------0-3---0---------|

Intro
Guitar 2:

Eb--10-10-10-10-10-10-10-10-10-12b----------------------------|
Bb------------------------------------------------------------|
Gb------------------------------------------------------------|(2x)
Db------------------------------------------------------------|
Ab------------------------------------------------------------|
Eb------------------------------------------------------------|

Verse:

Eb------------------------------------------------------------|
Bb------------------------------------------------------------|
Gb------------------------------------------------------------|
Db------------------------------------------------------------|
Ab-------0---------0---------0---------0----------------------|
Eb-000-000---000-000---000-000---000-000----------------------|

Intro

Verse

Intro

Chorus:

Eb------------------------------------------------------------|
Bb------------------------------------------------------------|
Gb------------------------------------------------------------|(4x)
Db-0--0-0---8--8-8---3--3-3---1--1-1-1-3----------------------|
Ab-0--0-0---8--8-8---3--3-3---1--1-1-1-3----------------------|
Eb-0--0-0---8--8-8---3--3-3---1--1-1-1-3----------------------|

Intro

Verse

Intro

Chorus

Bridge:

Eb------------------------------------------------------------|
Bb------------------------------------------------------------|
Gb------------------------------------------------------------|
Db------------------------------------------------------------|(8x)
Ab-------0--------0--------0--0-22-33-5-----------------------|
Eb-000-000--000-000--000-000--0-22-33-5-----------------------|

Intro

Chorus

Outro:

Eb------------------------------------------------------------|
Bb------------------------------------------------------------|
Gb------------------------------------------------------------|
Db-7xx--3xx---------------------------------------------------|(12x)
Ab-5xx--1xx--7xx--5xx--333-5-3-2------------------------------|
Eb-----------7xx--5xx--333-5-3-2------------------------------|


The end.
Tap to rate this tab
# A B C D E F G H I J K L M N O P Q R S T U V W X Y Z