Song name
# A B C D E F G H I J K L M N O P Q R S T U V W X Y Z

Seether - Immortality Acoustic tab

band-Seether
song-Immortality (Pearl Jam cover)
album-One Cold Night

The rythm is pretty simple, this is how i play/sing it and it sounds completely fine.
lyrics on the other hand, are open for inturpretation. You can compare them with the Pearl
lyrics and sing the Pearl Jam lyrics, but to me, this is what Shaun sounds like he's 
in the cover. Listen to the song for strumming patterns, there pretty straight
Nobody's perfect, any questions, email me at savageknot@yahoo.com. goodluck

 C     E     D
----|-----|----|
-1--|-----|--3-|
-0--|-----|--2-|
-2--|--2--|----|
-3--|--2--|----|
----|-----|----|

Intro-
 C
---------------0--------------------0--------------------00------------------|
--------1p0----0------------1p0------0-------------1p0---00-----------1p0----|
------0----0--------------0----0-----------------0----0--------------0----0--|
----2--------------0----2----------------0-----2-------------1-0---2---------|
--3-----------2---2---3-----------2----2-----3-------------------3-----------|
------------0-------------------0----------------------0-------------------0-|

Verse x12
------------------|
------0h3p0----22-|
---------------33-|
-2-22-2-----22----|
-2-22-2-----22----|

Chorus:
C                  E
A truant finds his home
C                  E
and a will to hold on
C           E            D
theres a trapdoor in the sun...its immortality


Verse 2 x12
------------------|
------0h3p0----22-|
---------------33-|
-2-22-2-----22----|
-2-22-2-----22----|


Chorus:
C                  E
A truant finds his home
C                  E
and a will to hold onto
C            E           D
theres a trapdoor in the sun


During solo x8
------------------|
------0h3p0----22-|
---------------33-|
-2-22-2-----22----|
-2-22-2-----22----|

E C E D x4

...It's Immortality

Verse 3 x6
------------------|
------0h3p0----22-|
---------------33-|
-2-22-2-----22----|
-2-22-2-----22----|

C E C E C E D x2
Tap to rate this tab
# A B C D E F G H I J K L M N O P Q R S T U V W X Y Z