Song name
# A B C D E F G H I J K L M N O P Q R S T U V W X Y Z

Seether - Fake It tab

Tabbed by: aslashwannabee
Email: reilmic10@jcpatriot.org

Tuning: Drop c

1-d
2-a
3-f
4-c
5-g
6-c

This is only the lead guitar.
Listen to the song for the rhythm.

PRE-CHORUS
d|--------------------------------|x4
a|--------------------------------|
f|----------------5-5-------------|
c|--0-0--0-3-3--0-5-5--0-5-0-3-0--|
g|--0-0--0-3-3--0-3-3--0-5-0-3-0--|
c|--0-0--0-3-3--0------0-5-0-3-0--|
"good god, you're comin..."

CHORUS
d|------------------------------|x3
a|------------------------------|
f|---------------------------5--|
c|--0-0--0-0-0--0-3-3--0-5-0-5--|
g|--0-0--0-0-0--0-3-3--0-5-0-3--|
c|--0-0--0-0-0--0-3-3--0-5-0----|
"fake it if you're..."

(chorus continued)
d|-----------------------------------|
a|-----------------------------------|
f|-----------------------------------|
c|--3-3-3-3-5-5-5-5-0-0-0-0-7-7-7-7--|
g|--3-3-3-3-5-5-5-5-0-0-0-0-7-7-7-7--|
c|--3-3-3-3-5-5-5-5-0-0-0-0-7-7-7-7--|
"woah you're such a..."

VERSE 2
d|--x-x-3--x-x-x-x-x-x--x-x-x-x-x-3--x-x-x--|
a|--x-x-2--x-x-x-x-x-x--x-x-x-x-x-2--x-x-x--|
f|--x-x-3--x-x-x-x-x-x--x-x-x-x-x-3--x-x-x--|
c|--x-x-0--x-x-x-x-x-x--x-x-x-x-x-0--x-x-x--|
g|--x-x-0--x-x-x-x-x-x--x-x-x-x-x-0--x-x-x--|
c|--x-x----x-x-x-x-x-x--x-x-x-x-x----x-x-x--|
"and you should know that your lies won't hide..."

PRE-CHORUS
d|--------------------------------|x4
a|--------------------------------|
f|----------------5-5-------------|
c|--0-0--0-3-3--0-5-5--0-5-0-3-0--|
g|--0-0--0-3-3--0-3-3--0-5-0-3-0--|
c|--0-0--0-3-3--0------0-5-0-3-0--|
"good god, you're comin..."

CHORUS
d|------------------------------|x3
a|------------------------------|
f|---------------------------5--|
c|--0-0--0-0-0--0-3-3--0-5-0-5--|
g|--0-0--0-0-0--0-3-3--0-5-0-3--|
c|--0-0--0-0-0--0-3-3--0-5-0----|
"fake it if you're..."

(chorus continued)
d|-----------------------------------|
a|-----------------------------------|
f|-----------------------------------|
c|--3-3-3-3-5-5-5-5-0-0-0-0-7-7-7-7--|
g|--3-3-3-3-5-5-5-5-0-0-0-0-7-7-7-7--|
c|--3-3-3-3-5-5-5-5-0-0-0-0-7-7-7-7--|
"woah you're such a..."

BRIDGE
d|------20~--------------------20~---------------------------------------|
a|--18~-----18~------------18~-----18~-----------------------------------|
f|--------------12-10-9-14-------------14-14-14-12-12-12-11-11-11-9-9-9--|
c|-----------------------------------------------------------------------|
g|--------------10--8-7-12-------------12-12-12-10-10-10--9--9--9-7-7-7--|
c|-----------------------------------------------------------------------|

(bridge continued)SOLO
d|-------------------------------------------------------------|
a|---------------------------------------------------------10--|
f|--9-10-9------------------------9-10-9-------------10-12-----|
c|---------10-12-10-12-------------------10-12-10-12-----------|
g|---------------------10-12-10-8------------------------------|
c|-------------------------------------------------------------|

(bridge continued)(solo continued)
d|-------------------------------------------------------------------|
a|---------------------------------------------------10----10-13-15--|
f|--9-10-9------------------------9-10-9-------10-12----12-----------|
c|---------10-12-10-12-------------------10-12-----------------------|
g|---------------------10-12-10-8------------------------------------|
c|-------------------------------------------------------------------|

(bidge continued)
d|------14-----14-15-----14-15br-----12-14-16-------|
a|--15~----15~-------15~---------15~----------15~\--|
f|--------------------------------------------------|
c|--------------------------------------------------|
g|--------------------------------------------------|
c|--------------------------------------------------|
"i can fake it with the best..."

PRE-CHORUS
d|--------------------------------|x4
a|--------------------------------|
f|----------------5-5-------------|
c|--0-0--0-3-3--0-5-5--0-5-0-3-0--|
g|--0-0--0-3-3--0-3-3--0-5-0-3-0--|
c|--0-0--0-3-3--0------0-5-0-3-0--|
"good god, you're comin..."

CHORUS
d|------------------------------|x3
a|------------------------------|
f|---------------------------5--|
c|--0-0--0-0-0--0-3-3--0-5-0-5--|
g|--0-0--0-0-0--0-3-3--0-5-0-3--|
c|--0-0--0-0-0--0-3-3--0-5-0----|
"fake it if you're..."

(chorus continued)
d|-----------------------------------|
a|-----------------------------------|
f|-----------------------------------|
c|--3-3-3-3-5-5-5-5-0-0-0-0-7-7-7-7--|
g|--3-3-3-3-5-5-5-5-0-0-0-0-7-7-7-7--|
c|--3-3-3-3-5-5-5-5-0-0-0-0-7-7-7-7--|
"woah you're such a..."

guitar 2 plays chorus 3 more times, while guitar plays solo again

=============================================================================
=============================================================================
Legend
b - bend
r - release bend
~ - hand vibrato
\ - slide down to nothing
x - palm mute
Tap to rate this tab
# A B C D E F G H I J K L M N O P Q R S T U V W X Y Z