Guitaretab - guitar tabs
Song name
# A B C D E F G H I J K L M N O P Q R S T U V W X Y Z

Seether - Eyes Of The Devil tab

-------------------------------------------------------------------------------
			     Eyes of the devil- Seether
-------------------------------------------------------------------------------
Tabbed by: Slimjim5792
Email:slim-jim-3@comcast.net
Tuning: Drop C: C,G,C,F,A,D

Hey all, this is a great song from Seether that doesnít seem to be very popular.
Here is my shot at tabbing it out, sounds pretty good to me.
Really there should be 3 guitarists for this song but Iím narrowing it to two,
the third just makes it easier and fills a couple small things in that you really donít 
hear.
For this song you will need 2 guitarists with some heavy distortion, chorus, and wah for 
solo.
Itís hard to hear some parts but they are there. So listen carefully to the song. Pretty 
to play once you get the timing.
If you have any corrections or comments please feel free to e-mail me or leave a 
Slim-jim-3@comcast.net

Intro gtr.1(Clean)   10x
D|---------------------------------------------------------------------------|
A|---------------------------------------------------------------------------|
F|---------------------------------------------------------------------------|
C|---3-3-3-3-3-3-5-5-2-2-2-2-2-2-0-0-----------------------------------------|
G|--5-5-5-5-5-5-5-5-0-0-0-0-0-0-0-0------------------------------------------|
C|---------------------------------------------------------------------------|
 | Intro gtr.2(Clean)  2x  (Play this overtop gtr.1 on the 5th and 6th time through)
D|----17--17--17--17--17--17--17--17--17--17--17--17--17--17ó17-ó17----------|
A|--15--15--15--15--15--15--15--15--14--14--14--14--14--14--14--14-----------|
F|---------------------------------------------------------------------------|
C|---------------------------------------------------------------------------|
G|---------------------------------------------------------------------------|
C|---------------------------------------------------------------------------|

Chorus gtr.1(Distortion)  2x
D|---------------------------------------------------------------------------|
A|-3--3-33-------------------------------------------------------------------|
F|-2--2-22-----------5--5-55--2222-5555-7777-999-----------------------------|
C|-0--0-00--7--7-77--3--3-33--2222-xxxx-xxxx-xxx-----------------------------|
G|-0--0-00--7--7-77--3--3-33--0000-3333-5555-777-----------------------------|
C|-0--0-00--7--7-77--3--3-33-------------------------------------------------|
 | Chorus grt.2(Distortion)  6x  (Play this when gtr.1 strums the powerchords twice)
D|---------------------------------------------------------------------------|
A|---------------------------------------------------------------------------|
F|----7755-------------------------------------------------------------------|
C|----xxxx0------------------------------------------------------------------|
G|----55330------------------------------------------------------------------|
C|---------------------------------------------------------------------------|

 Bridge gtr.1(Distortion)
D|---------------------------------------------------------------------------|
A|---------------------------------------------------------------------------|
F|---------------------------------------------------------------------------|
C|---------------------------------------------------------------------------|
G|--5--8--10--7ó---7/12--10--8--7ó-7h8p7-------------------------------------|
C|---------------------------------------------------------------------------|

 Bridge gtr.2(Distortion)
D|---------------------------------------------------------------------------|
A|--2------------------------------------------------------------------------|
F|--3------------------------------------------------------------------------|
C|--0---------7-------3---------7--------------------------------------------|
G|--0---------7-------3---------7--------------------------------------------|
C|--0---------7-------3---------7--------------------------------------------|

Verse gtr.1(Clean)   4x
D|---------------------------------------------------------------------------|
A|---------------------------------------------------------------------------|
F|---------------------------------------------------------------------------|
C|---3-3-3-3-3-3-5-5-2-2-2-2-2-2-0-0-----------------------------------------|
G|--5-5-5-5-5-5-5-5-0-0-0-0-0-0-0-0------------------------------------------|
C|---------------------------------------------------------------------------|
[ Tab from: http://www.guitaretab.com/s/seether/98684.html ]
Chorus gtr.1(Distortion)  2x
D|---------------------------------------------------------------------------|
A|-3--3-33-------------------------------------------------------------------|
F|-2--2-22-----------5--5-55--2222-5555-7777-999-----------------------------|
C|-0--0-00--7--7-77--3--3-33--2222-xxxx-xxxx-xxx-----------------------------|
G|-0--0-00--7--7-77--3--3-33--0000-3333-5555-777-----------------------------|
C|-0--0-00--7--7-77--3--3-33-------------------------------------------------|
 | Chorus grt.2(Distortion)  6x  (Play this when gtr.1 strums each of the first 3 chords twice)
D|---------------------------------------------------------------------------|
A|---------------------------------------------------------------------------|
F|----7755-------------------------------------------------------------------|
C|----xxxx0------------------------------------------------------------------|
G|----55330------------------------------------------------------------------|
C|---------------------------------------------------------------------------|

Solo gtr.1 (Distortion, Wah) (for this part of the solo it is not necessary to trill.
It sounds close if you just let the notes ring, your choice.)
D|------1tó2tó0tó1t-----0tó1tó3tó5tó8t-------1tó2tó0tó1tó15tó13tó15tó17tó20t-|
A|3tó5t-------------1t-----------------3tó5t---------------------------------|
F|---------------------------------------------------------------------------|
C|---------------------------------------------------------------------------|
G|---------------------------------------------------------------------------|
C|---------------------------------------------------------------------------|
 (This part is absolutely necessary trill unless you have some incredible sustain, and 
Wah is necessary.
Itís tough to time this part, play around with these notes and improvise them to how you 
the song.
In fact I donít even play it exactly like this now.)
D|-22t---20tó18tó17t-15h17t-15h17t-15h17t-17t---20t-19-22t--18h22t-18h22tó22t|
A|---------------------------------------------------------------------------|
F|---------------------------------------------------------------------------|
C|---------------------------------------------------------------------------|
G|---------------------------------------------------------------------------|
C|---------------------------------------------------------------------------|
| Solo gtr.2(Distortion) part 1  2x
D|---------------------------------------------------------------------------|
A|-3--3--33------------------------------------------------------------------|
F|-2--2--22--------------------2222-5555-7777-999----------------------------|
C|-0--0--00--7--7-77--3--3-33--2222-xxxx-xxxx-xxx----------------------------|
G|-0--0--00--7--7-77--3--3-33--0000-3333-5555-777----------------------------|
C|-0--0--00--7--7-77--3--3-33------------------------------------------------|


Solo gtr.2(Distortion) part 2  2x  (This should begin at the first 22 of Gtr.1, this is 
same tempo as the chorus,
except this guitar does the job of both guitars that are in the chorus)
D|---------------------------------------------------------------------------|
A|-3ó-3----------------------------------------------------------------------|
F|-2--2--7755---------7755---5--5--7755---2222-5555-7777-999-----------------|
C|-0--0--xxxx0--7--7--xxxx0--3--3--xxxx0--2222-xxxx-xxxx-xxx-----------------|
G|-0--0--55330--7--7--55330--3--3--55330--0000-3333-5555-777-----------------|
C|-0--0---------7--7---------3--3--------------------------------------------|


Chorus gtr.1(Distortion)  2x
D|---------------------------------------------------------------------------|
A|-3--3-33-------------------------------------------------------------------|
F|-2--2-22-----------5--5-55--2222-5555-7777-999-----------------------------|
C|-0--0-00--7--7-77--3--3-33--2222-xxxx-xxxx-xxx-----------------------------|
G|-0--0-00--7--7-77--3--3-33--0000-3333-5555-777-----------------------------|
C|-0--0-00--7--7-77--3--3-33-------------------------------------------------|
 | Chorus grt.2(Distortion)  6x  (Play this in the background when gtr.1 strums each of 
first 3 chords twice)
D|---------------------------------------------------------------------------|
A|---------------------------------------------------------------------------|
F|----7755-------------------------------------------------------------------|
C|----xxxx0------------------------------------------------------------------|
G|----55330------------------------------------------------------------------|
C|---------------------------------------------------------------------------|

Bridge #2 gtr.2 (Distortion)
D|---------------------------------------------------------------------------|
A|--3------------------------------------------------------------------------|
F|--2------------------------------------------------------------------------|
C|--0---------7-------3---------7--------------------------------------------|
G|--0---------7-------3---------7--------------------------------------------|
C|--0---------7-------3---------7--------------------------------------------|

Outro gtr.1(Clean)   4x
D|---------------------------------------------------------------------------|
A|---------------------------------------------------------------------------|
F|---------------------------------------------------------------------------|
C|---3-3-3-3-3-3-5-5-2-2-2-2-2-2-0-0-----------------------------------------|
G|--5-5-5-5-5-5-5-5-0-0-0-0-0-0-0-0------------------------------------------|
C|---------------------------------------------------------------------------|

| b  bend
| v  vibrato
| t  trill
| ~  let ring
| /  slide up
| \  slide down
| h  hammer-on
| p  pull-off
| x  Mute note

Well thatís it, I hope you like it. Itís a little confusing, I know. Sorry.
Like I said before, if you have any questions or comments please feel free to e-mail me 
Slim-jim-3@comcast.net.
Or leave a comment. Thanks.
===============================================================================
Related for Eyes Of The Devil tab