Song name
# A B C D E F G H I J K L M N O P Q R S T U V W X Y Z

Segatron - Hey Hey Alodia tab

Segatron - Hey Hey Alodia

Tuning: Standard (EADGBe)

Symbols:

b = bend
h = hammer on
p = pull off
* = palm mute
/ = slide
t = tap
~ = let ring

notes:

* XbY = bend X til you reach note Y
  alternatively you can just slide it if you're scared the string might break

* there are a lot of helpful tapping lessons here at UG if you don't know how yet

* i think this is more or less accurate. forgive me if i have mistakes.

* listen for strumming pattern

Intro

gtr 1

e|-------------14-----------------|----------------------14-------------------14-----------------|
B|-12----11-12----12-11-12~-------|-14b16-11-12----11-12----12-11-12----11-12----12-11-----------|
G|----11---------------------(2x)-|-------------11-------------------11----------------11~-8h9p8-|
D|--------------------------------|--------------------------------------------------------------|
A|--------------------------------|--------------------------------------------------------------|
E|--------------------------------|--------------------------------------------------------------|



e|----|----------14---------------|----------14-------------------------------12-11-|
B|-12-|----11-12----12-11-12------|----11-12----12-11-12/14-12h14p12-11-12-14-------|
G|----|-11-------------------(4x)-|-11----------------------------------------------|
D|----|---------------------------|-------------------------------------------------|
A|----|---------------------------|-------------------------------------------------|
E|----|---------------------------|-------------------------------------------------|


e|----------11-12-11--|--------11-12-----|
B|-14-12-14-----------|-14-12-14-----12--|
G|--------------------|------------------|
D|--------------------|------------------|
A|--------------------|------------------|
E|--------------------|------------------|


gtr 2

e|-----------------|
B|-----------------|
G|-4--4------------|
D|-4--4--6-4--2----|
A|-2--6--6-4--2----|
E|-------4-6--0----|



Verse

e|---------------------|
B|---------------------|
G|-4--4-----------(2x)-|
D|-4--4---6-4--2-------|
A|-2--2---6-4--2-------|
E|--------4-6--0-------|
            

Chorus              chorus end

e|-----------------|----|
B|-----------------|----|
G|-4--4------------|-4~-|
D|-4--4--6-4--2----|-4~-|
A|-2--6--6-4--2----|-2~-|
E|-------4-6--0----|----|


Post chorus riff

e|-------------------|
B|-4-------4------4--|
G|-3--3----3--3---3--|
D|-------------------|
A|-2----2--2----2-2--|
E|-------------------|


Verse 2

  (Pretty girl..)    (I'll sweep...) (Let me be...)
e|------------------|---------------|--------|
B|-4~---------------|-4~------------|--------|
G|-3~---------------|-3~------------|--------|
D|------------------|-1~------------|-6-4--2-|
A|-2~---------------|---------------|-6-4--2-|
E|------------------|---------------|-4-6--0-|

(But what do i say...)

e|------------------|-----------|
B|------------------|-----------|
G|-------4----------|--------4--|
D|-6--2--4--4-2...--|--2~---44--|
A|-6--2--2--4-2...--|--2~---42--|
E|-4--0-----2-0...--|--0~---2---|
              ****

Chorus              

e|-------------------|
B|-------------------|
G|-4--4--------------|
D|-4--4--6-4--2-(2x)-|
A|-2--6--6-4--2------|
E|-------4-6--0------|


Solo

   gtr 2                     (~2.25)
e|------------|-------------|------|
B|------------|-------------|------|
G|----6-----8-|----6-----4--|------|
D|-3--6--6--8-|-3--6--6--3--|--4~--|
A|-3--4--6--6-|-3--4--6-----|--4~--|
E|-1-----4----|-1-----4--3--|--2~--|
                         |(not quite sure about this)

gtr 1
e|---|---------------------------|------------11----------------|------------------------------|
B|-9-|-------------9b11-9-8-9----|-11-9-11/13----11/13--11-9-11-|-9/11-9-8h9p8-------11-8-9~---|
G|---|--------8-10---------------|------------------------------|--------------10-8------------|
D|---|-----10--------------------|------------------------------|------------------------------|
A|---|-888-----------------(2x)--|------------------------------|------------------------------|
E|---|---------------------------|------------------------------|------------------------------|
       ***


e|---------------------------|------------11----------------|
B|-------------9b11-9-8-9----|-11-9-11/13----11/13--11-9-11-|
G|--------8-10---------------|------------------------------|
D|-----10--------------------|------------------------------|
A|-888-----------------(2x)--|------------------------------|
E|---------------------------|------------------------------|
   ***

tapping part (not sure)

e|---------------------------------------------------------------------------------------|
B|-9h11t13p11-9h11t14p11-9h11t13p11-9h11t14p11-9h11t16p11-9h11t14p11-9h11t13p11-9h11p9~--|
G|---------------------------------------------------------------------------------------|
D|---------------------------------------------------------------------------------------|
A|---------------------------------------------------------------------------------------|
E|---------------------------------------------------------------------------------------|

...yes, all of this is in the span of 2~3 seconds.

   ============================================================================
        
        alternatively, kung 2 naman kayo, pwede dayain to kung di kaya. 
        pakuha niyo nalang sa bass ung gtr 2 na part

            gtr 1               gtr 2            both (end of tapping)  
        e|-------------|-----------------------|------|
        B|-9h11p9-(8x)-|--13-14-13-14-16-14-13-|--9~--|
        G|-------------|-----------------------|------|
        D|-------------|-----------------------|------|
        A|-------------|-----------------------|------|
        E|-------------|-----------------------|------|

        gtr 2, play notes as staccato. make it sound as if you are tapping the string.

   ============================================================================

  gtr 1   ...then   gtr 2     both                                       
e|----------------|--------|-----------------|
B|-9~-/11~-/13~---|--------|-----------------|
G|----------------|---3--5-|-----------------|
D|----------------|---3--5-|-4-44444...------|
A|----------------|---1--3-|-4-44444...------|
E|----------------|--------|-2-22222...------|
                               *****

Chorus (one step higher; 2 frets up)

*hold C# on the first round

                          end
e|----------------------|------|
B|----------------------|------|
G|--6--6----------------|--6~--|
D|--6--6--8--6--4--(x4)-|--6~--|
A|--4--8--8--6--4-------|--4~--|
E|--------6--8--2-------|------|


end.

#############################################

        walang dedication ang tab na to. 
        leche kang babae ka. 
        
#############################################

email: eatsupstudytime@facebook.com

http://www.reverbnation.com/segatron
Tap to rate this tab
 
# A B C D E F G H I J K L M N O P Q R S T U V W X Y Z