Song name
# A B C D E F G H I J K L M N O P Q R S T U V W X Y Z

Seguimos Perdiendo - La Mirada Eterna chords

Highlighted       Show chord diagrams
E5

E5                              A5
Recuerdo la historia es como si no nos pasó
               C5 B5                  E5    C5 B5
aunque todo perdí por un sueño de amor.
E5                                A5                                       
Paseaba con ella mientras siempre en la ciudad
               C5 B5                  E5
nos miraban reír, siempre a ella llorar.

A5                            E5
El tiempo corría y el cielo sabía tu mal
             B5                   E5       C5 B5
te quería ayudar, no sabía qué hacer.
A5                              E5
Tu cuerpo sufría pero resistió hasta el final
            B5                  E5 
me pudiste mirar y decirme otra vez


E5                            D#5
Cuando me vaya no me extrañes cuando me vaya volverás
C#5                     A5
a enamorarte como antes a dar todo el amor
B5              E5
que tenías para dar

Solo 
     E5              A5                        C5   B5             E5   C5 B5
e|---------------------------------------------------------------------------|
B|---------------------------------------------------------------------------|
G|-----------------------------------------------------------------------5-4-|
D|---9-9-9--9-9--9-9-10-10-10-9-7-7--------7-9-10---9--10-10-9---7-9---------|
A|-----------------------------------7-7-7---------------------9-------------|
E|---------------------------------------------------------------------------|
     E5                A5                     C5    B5         E5    
e|---------------------------------------------------------------------------|
B|---------------------------------------------------------------------------|
G|-------------------9-12-12-11-9-9--12-12-12-11----12-12-11-11-9------------|
D|---9-9-9--9-9--9-9---------------------------------------------------------|
A|---------------------------------------------------------------------------|
E|---------------------------------------------------------------------------|


A5                            E5
Tome tu mano hasta el silencio 
               B5              E5       C5 B5
cuando tus ojos no brillaron más
A5                     E5
y muy despacio besé tu cuerpo
           B5           E5 
y te juro que te vi volar

E5                 D#5
Yo solo pude ver cuando te vi partir
   C#5                      B5     D#5             
llevabas el vestido que te di
E5                     D#5
pensé que era mejor guardar las cosas con
    C#5                   B5
las que te arreglabas al salir
A5                        B5
tu cuerpo se alejo con dirección
E5                    A5
tan lejos de mi pobre corazón
E5                             B5
aunque pensé que era la última vez
                 E5     A5
no te alejaste de mí...
B5               E5     A5
no te alejaste de mí
B5               E5     B5
no te alejaste de mí...
                 E5
no te alejaste de mí.
Tap to rate this tab
# A B C D E F G H I J K L M N O P Q R S T U V W X Y Z