Song name
# A B C D E F G H I J K L M N O P Q R S T U V W X Y Z

Seguimos Perdiendo - Yira Yira chords

Highlighted       Show chord diagrams
Intro
G  
G   C   G   D   G   D   G
    B   C   G   C   G   D   G

Requinto
                G        C           G    D        G          D     G
e|---------------------------------------------------------------------------|
B|---------------------------------------------------------------------------|
G|---------------------------------------------------------------------------|
D|----------------------------------5----------------------------------------|
A|------------2-5---5----7-7--7-7-3--5----9-9--9-9-7-5-7------5-----5-5---2--|
E|--3-3--3-3-5-------------------------------------------7------5------------|

                 B   C            G    C          G         D            G
e|---------------------------------------------------------------------------|
B|---------------------------------------------------------------------------|
G|---------------------------------------------------------------------------|
D|------------------------------2-----------------------------------------5--|
A|----------0-3-2----3-3--3-3-0---2----3-3-3-3--3-2-2-2-2--2-0-0-0-0--0------|
E|--3-3-3-3------------------------------------------------------------------|


                        Em               D                  G
Cuando la suerte que es grela, fayando y fayando, te largue parao;
                        Em    B7          Em     D
cuando estés bien en la vida, sin rumbo esperao.
C                    G              D             G         
Cuando no tengas ni fe ni yerba de ayer secándose al sol. 
                    Em                   D                 G
Cuando rajés los tamangos buscando aquel mango que te haga morfar,
C                   G                            A                 D 
la indiferencia del mundo, que es sordo y que es mudo, recien sentirás.

Requinto
                     G      C                 G    
Verás que todo es mentira, verás que nada es amor,
D                       G     D       G        
que al mundo nada le importa, yira oh yira...
                    Bm    C                    G
Aunque te muerda la vida, aunque te amargue un dolor,
 C                    G          D             G
no esperes nunca una ayuda, una  mano ni un favor... 


                     Em                 D               G
Cuando se sequen las pilas de todos los timbres que vos apretás,
                     Em     B7             Em          D
buscando un pecho fraterno, para morir abrazao...
C                  G              D                    G         
Cuando te dejen tirado después de cinchar lo mismo que a mi...
                     Em                 D               G
Cuando veas que a tu lado se prueban la ropa que vas a dejar, 
C                    G                    A                  D 
te acordarás de este otario que un dia cansado se puso a ladrar.

Requinto
                     G     C                 G    
Verás que todo es mentira, verás que nada es amor,
D                       G     D       G        
que al mundo nada le importa, yira oh yira... 
                    Bm    C                    G
Aunque te muerda la vida, aunque te amargue un dolor,
C                      G           D             G
no esperes nunca una ayuda, ni una mano ni un favor... 
Tap to rate this tab
 
# A B C D E F G H I J K L M N O P Q R S T U V W X Y Z