Song name
# A B C D E F G H I J K L M N O P Q R S T U V W X Y Z

Seigmen - Nemesis tab

Help us improve GuitareTab! Take a short survey!
Standard tuning. *=natural harmonics

INTRO: Elsker, elsker ikke
|---------------------------------|
|---------------------------------|
|-2-2-2-2-2-2-2-2/3-3-3-3-3-3-3-3-|
|-2-2-2-2-2-2-2-2/3-3-3-3-3-3-3-3-|
|---------------------------------|
|---------------------------------|

Det kommer ann p...
|-------------------------------------------------|
|-------------------------------------------------|
|-------------------------------------------------|
|-4-4-x-x-x-x-4-4-x-x-x-x-4-4-x-x-x-x-4-4-x-x-x-x-|
|-4-4-x-x-x-x-4-4-x-x-x-x-4-4-x-x-x-x-4-4-x-x-x-x-|
|-2-2-x-x-x-x-2-2-x-x-x-x-2-2-x-x-x-x-2-2-x-x-x-x-|

|-------------------------------------------------|
|-------------------------------------------------|
|-------------------------------------------------|
|-5-5-x-x-x-x-5-5-x-x-x-x-5-5-x-x-x-x-5-5-x-x-x-x-|
|-5-5-x-x-x-x-5-5-x-x-x-x-5-5-x-x-x-x-5-5-x-x-x-x-|
|-3-3-x-x-x-x-3-3-x-x-x-x-3-3-x-x-x-x-3-3-x-x-x-x-|

CHORUS: Innerst inne... Im just writing the chords,
listen to the song to get the rythm
|----------------------------|
|----------------------------|
|-7---5---7---5---4-------11-|
|-5---5---5---5---5---9---9--|
|-3---3---3---3---3---7---7--|
|----------------------------|

Then the "En lukket hnd" part comes, it consists of 

mainly bass with some guitar shit in the background, just 

improvise :)

CHORUS again

OUTRO:
|-------------------------------------------------|
|-------------------------------------------------|
|-------------------------------------------------|
|-4-4---------4-4---------4-4---------4-4---------|
|-4-4---------4-4---------4-4---------4-4---------|
|-2-2-*-*-*-*-2-2-*-*-*-*-2-2-*-*-*-*-2-2-*-*-*-*-|

|-------------------------------------------------|
|-------------------------------------------------|
|-------------------------------------------------|
|-5-5---------5-5---------5-5---------5-5---------|
|-5-5---------5-5---------5-5---------5-5---------|
|-3-3-*-*-*-*-3-3-*-*-*-*-3-3-*-*-*-*-3-3-*-*-*-*-|

Then lot of obscure shit, again, just improvise.

Not realy a good tab, but shows the basics of the song.
Related for Nemesis tab