Song name
# A B C D E F G H I J K L M N O P Q R S T U V W X Y Z

Seigmen - Pantheon tab

This is just the main guitar riff of the song. 

Artist: Seigmen.
Album: Total.
Song: Pantheon.
Tuning: Standard. 
Enjoy!

e|---------------------------------------------|
B|--12-13-12---12-13-12---12-13-12-------------|
G|-----------9----------9----------9-11-12-11--|
D|--------------------------------------------9|
A|---------------------------------------------|
E|---------------------------------------------|

e|---------------------------------------------|
B|--10-12-10---10-12-10---10-12-10-------------|
G|-----------9----------9----------9-9-11-9----|
D|------------------------------------------9--|
A|---------------------------------------------|
E|---------------------------------------------|

Any comments? Email: Petter666@live.com
Tap to rate this tab
# A B C D E F G H I J K L M N O P Q R S T U V W X Y Z