Guitaretab - guitar tabs
Song name
# A B C D E F G H I J K L M N O P Q R S T U V W X Y Z

Seigmen - Doderlein tab

This tab was tabbed by ear to both the CD version of Döderlein (on the 'Total' album) 
the live version from October 2005 at Dødens Dal.
Not all riffs (as indicated) are included in both versions.
Thanks to a tab by 'NÅLGA' for getting me started. Tabbed by newm1ke.

tempo: 115
Guitar delay will be something like 52 ms

Tuning: Drop D >> to play in standard, play the notes on the deep string 2 frets lower

INTRO/VERSE (CLEAN w/loud delay)
|------------------------------------------------------------------------------|
|------------------------------------------------------------------------------|
|-----9---9---9-------9---9/10---10~---12----12-12-14\12~----10----10----10----|
|---7---7---7---7---7---7------7----------10--------------10----10----10----10-|
|-0---------------8------------------0-----------------------------------------|
|------------------------------------------------------------------------------|

|------------------------------------------------------------------------------|
|------------------------------------------------------------------------------|
|-10-/9---9---9-------9---9/10---10~---12----12-12-14\12~----10----10----10----|
|-------7---7--(7)--7---7------7----------10--------------10----10----10----10-|
|-----------------8------------------0-----------------------------------------|
|------------------------------------------------------------------------------|


[live version only]
Background during verse     |variation (every 3rd time?)|last time
|---------------------------|---------------------------|----------------------------|
|---------------------------|---------------------------|----------------------------|
|---------14----14---(14)---|---------14----14----14----|---------16----16---(16)----|
|------12----12----12---(12)|------14----14----14----14-|------14----14----14---(16--|
|----0----------------------|----0----------------------|----0-----------------------|
|---------------------------|---------------------------|----------------------------|


[live version only]
LEAD FILL (distortion lots of delay)
|--------------------------------------|
|-10v--/18--17----15---\10----13-12~~--|
|--------------------------------------|
|--------------------------------------|
|--------------------------------------|
|--------------------------------------|

CHORUS [distortion]
|-------------|
|-------------|
|-------7-----|
|-7--3--7-----|
|-7--3--5....-|
|-7..3..------|

Post-chorus 1
|-------|
|-------|
|-9~~~~~
|-7~~~~~
|-0~~~~~
|-------

Back to verse, chorus.
[ Tab from: http://www.guitaretab.com/s/seigmen/73520.html ]
Heavy part
|--------------------------------------|---------------------------------------------|
|--------------------------------------|---------------------------------------------|
|--------------------------------------|---------------------------10/12121212121212-|
|--------------------------------------|---------------------------------------------|
|-xxxx-9-xxxxxx-9-xxxxxx-9-xxxxxx-9-xx-|-7-xxxxxx-7-xxxxxx-7-xxxxxx-8/10101010101010-|
|-xxxx-9-xxxxxx-9-xxxxxx-9-xxxxxx-9-xx-|-7-xxxxxx-7-xxxxxx-7-xxxxxx------------------|

|--------------------------------------|----------------------------------------------|
|--------------------------------------|----------------------------------------------|
|--------------------------------------|---------------------------10/12121212/141414-|
|--------------------------------------|----------------------------------------------|
|-xxxx-9-xxxxxx-9-xxxxxx-9-xxxxxx-9-xx-|-7-xxxxxx-7-xxxxxx-7-xxxxxx-8/10101010/121212-|
|-xxxx-9-xxxxxx-9-xxxxxx-9-xxxxxx-9-xx-|-7-xxxxxx-7-xxxxxx-7-xxxxxx-------------------|

|--------------------------------------|---------------------------------------------|
|--------------------------------------|---------------------------------------------|
|--------------------------------------|---------------------------10/12121212121212-|
|--------------------------------------|---------------------------------------------|
|-xxxx-9-xxxxxx-9-xxxxxx-9-xxxxxx-9-xx-|-7-xxxxxx-7-xxxxxx-7-xxxxxx-8/10101010101010-|
|-xxxx-9-xxxxxx-9-xxxxxx-9-xxxxxx-9-xx-|-7-xxxxxx-7-xxxxxx-7-xxxxxx------------------|

|--------------------------------------|-----|
|--------------------------------------|-----|
|--------------------------------------|-2~~~|
|--------------------------------------|-2~~~|
|-xxxx-9-xxxxxx-9-xxxxxx-9-xxxxxx-9-xx-|-0~~~|
|-xxxx-9-xxxxxx-9-xxxxxx-9-xxxxxx-9-xx-|-----|


Lead SOLO
|-------------------------------|
|-------------------------------|
|-//14~--14-\10~--12-9~--7/10~--|
|-------------------------------|
|-------------------------------|
|-------------------------------| x2

Heavy part (on CD)
|--------------------------------------------------------------------------|
|--------------------------------------------------------------------------|
|-2~~~---------2~~~---6/7vv--2~~~--7--10--9-10--9-10-/12--9~---9\7-7--10~--|
|-2~~~--7-8~~--2~~~----------2~~~------------------------------------------|
|-0~~~---------0~~~----------0~~~------------------------------------------|
|--------------------------------------------------------------------------|

Chorus until end.
Related for Doderlein tab
Advertisement will be closed in 10 seconds