Song name
# A B C D E F G H I J K L M N O P Q R S T U V W X Y Z

Seizethemoment - I Hope You Bled Tears On Valentines Day tab

Artist: ///seizethemoment.
Song: I Hope You Bled Tears On Valentine's Day
Album: I Hope You Bled Tears On Valentine's Day Demo
Website: http://www.myspace.com/seizethemoment
Tuning: DADGBe

Im not sure if its completely right but its pretty close!!!!

One of their older and much more easy songs but it plays awsome!

~  = let ring
() = indicates fret number 10 and over [when necesary]
x/ = pick scratch

GUITAR 1
Intro x6
e|-00000777777770000077777777-----------------------------------------|
b|-66666666666666666666666666-----------------------------------------|
G|-55555555555555555555555555-----------------------------------------|
D|-0~~~~~~~~~~~~------------------------------------------------------|
A|--------------------------------------------------------------------|
D|--------------------------------------------------------------------|

GUITAR 2
Intro x4
e|--------------------------------------------------------------------|
b|--------------------------------------------------------------------|
G|--------------------------------------------------------------------|
D|-0~~~~~~~~~~~~(10)~~~(10)~~~~~~-------------------------------------|
A|-0~~~~~~~~~~~~8~~~~~~(10)~~~~~~-------------------------------------|
D|-0~~~~~~~~~~~~8~~~~~~(10)~~~~~~-------------------------------------|


GUITAR 1
then play this x4
e|--------------------------------------------------------------------|
b|--------------------------------------------------------------------|
G|--------------------------------------------------------------------|
D|-000000000088888(10)(10)(10)(10)(10)(10)(10)(10)(10)----------------|
A|-000000000088888(10)(10)(10)(10)(10)(10)(10)(10)(10)----------------|
D|-000000000088888(10)(10)(10)(10)(10)(10)(10)(10)(10)----------------|

GUITAR 2 
e|--------------------------------------------------------------------|
b|--------------------------------------------------------------------|
G|-(10)9----(10)9----(10)9(10)9----(10)9----(12)(9)---(10)(9)---------|
D|------(10)-----(10)----------(10)-----(10)-------(10)---------------|
A|--------------------------------------------------------------------|
D|--------------------------------------------------------------------|


GUITAR 1 and 2
Verse part 1 x2
e|--------------------------------------------------------------------|
b|--------------------------------------------------------------------|
G|--------------------------------------------------------------------|
D|-0~~~~~~~~~~~~(10)~~~(10)~~~~~~-------------------------------------|
A|-0~~~~~~~~~~~~8~~~~~~(10)~~~~~~-------------------------------------|
D|-0~~~~~~~~~~~~8~~~~~~(10)~~~~~~-------------------------------------|


GUITAR 
Verse part 2 x2
e|--------------------------------------------------------------------|
b|--------------------------------------------------------------------|
G|--------------------------------------------------------------------|
D|-0~~~~~~~~~~~~(10)~~~(10)~~~~~~-------------------------------------|
A|-0~~~~~~~~~~~~8~~~~~~(10)~~~~~~-------------------------------------|
D|-0~~~~~~~~~~~~8~~~~~~(10)~~~~~~-------------------------------------|

GUITAR 2
Verse part 2 x2
(listen for the changes)
e|--------------------------------------------------------------------|
b|--------------------------------------------------------------------|
G|--------------------------------------------------------------------|
D|-000000000088888(10)(10)(10)(10)(10)(10)(10)(10)(10)----------------|
A|-000000000088888(10)(10)(10)(10)(10)(10)(10)(10)(10)----------------|
D|-000000000088888(10)(10)(10)(10)(10)(10)(10)(10)(10)----------------|
pm ...................................................


GUITAR 1
Prechorus
e|--------------------------------------------------------------------|
b|--------------------------------------------------------------------|
G|--------------------------------------------------------------------|
D|-0~~~~~~~~~~~~~~~~~~~~~~~~xxxxxxxx----------------------------------|
A|-0~~~~~~~~~~~~~~~~~~~~~~~~xxxxxxxx----------------------------------|
D|-0~~~~~~~~~~~~~~~~~~~~~~~~xxxxxxxx----------------------------------|

GUITAR 2
Prechorus
e|--------------------------------------------------------------------|
b|--------------------------------------------------------------------|
G|--------------------------------------------------------------------|
D|-0~~~~~~~~~~~~~~~~~~~~~~~~------------------------------------------|
A|-0~~~~~~~~~~~~~~~~~~~~~~~~------------------------------------------|
D|-0~~~~~~~~~~~~~~~~~~~~~~~~x///////----------------------------------|


GUITAR 1
Chorus x4
e|--------------------------------------------------------------------|
b|--------------------------------------------------------------------|
G|--------------------------------------------------------------------|
D|-000000000088888(10)(10)(10)(10)(10)(10)(10)(10)(10)----------------|
A|-000000000088888(10)(10)(10)(10)(10)(10)(10)(10)(10)----------------|
D|-000000000088888(10)(10)(10)(10)(10)(10)(10)(10)(10)----------------|

GUITAR 2 
Chorus
e|--------------------------------------------------------------------|
b|--------------------------------------------------------------------|
G|-(10)9----(10)9----(10)9(10)9----(10)9----(12)(9)---(10)(9)---------|
D|------(10)-----(10)----------(10)-----(10)-------(10)---------------|
A|--------------------------------------------------------------------|
D|--------------------------------------------------------------------|


GUITAR 1
Intro x2
e|-00000777777770000077777777-----------------------------------------|
b|-66666666666666666666666666-----------------------------------------|
G|-55555555555555555555555555-----------------------------------------|
D|-0~~~~~~~~~~~~------------------------------------------------------|
A|--------------------------------------------------------------------|
D|--------------------------------------------------------------------|

GUITAR 2
Intro x2
e|--------------------------------------------------------------------|
b|--------------------------------------------------------------------|
G|--------------------------------------------------------------------|
D|-0~~~~~~~~~~~~(10)~~~(10)~~~~~~-------------------------------------|
A|-0~~~~~~~~~~~~8~~~~~~(10)~~~~~~-------------------------------------|
D|-0~~~~~~~~~~~~8~~~~~~(10)~~~~~~-------------------------------------|


GUITAR 1
Verse x4
(listen for the changes after x2)
e|--------------------------------------------------------------------|
b|--------------------------------------------------------------------|
G|--------------------------------------------------------------------|
D|-000000000088888(10)(10)(10)(10)(10)(10)(10)(10)(10)----------------|
A|-000000000088888(10)(10)(10)(10)(10)(10)(10)(10)(10)----------------|
D|-000000000088888(10)(10)(10)(10)(10)(10)(10)(10)(10)----------------|
pm ...................................................



GUITAR 1
Prechorus
e|--------------------------------------------------------------------|
b|--------------------------------------------------------------------|
G|--------------------------------------------------------------------|
D|-0~~~~~~~~~~~~~~~~~~~~~~~~xxxxxxxx----------------------------------|
A|-0~~~~~~~~~~~~~~~~~~~~~~~~xxxxxxxx----------------------------------|
D|-0~~~~~~~~~~~~~~~~~~~~~~~~xxxxxxxx----------------------------------|

GUITAR 2
Prechorus
e|--------------------------------------------------------------------|
b|--------------------------------------------------------------------|
G|--------------------------------------------------------------------|
D|-0~~~~~~~~~~~~~~~~~~~~~~~~------------------------------------------|
A|-0~~~~~~~~~~~~~~~~~~~~~~~~------------------------------------------|
D|-0~~~~~~~~~~~~~~~~~~~~~~~~x///////----------------------------------|


GUITAR 1
Chorus x4
e|--------------------------------------------------------------------|
b|--------------------------------------------------------------------|
G|--------------------------------------------------------------------|
D|-000000000088888(10)(10)(10)(10)(10)(10)(10)(10)(10)----------------|
A|-000000000088888(10)(10)(10)(10)(10)(10)(10)(10)(10)----------------|
D|-000000000088888(10)(10)(10)(10)(10)(10)(10)(10)(10)----------------|

GUITAR 2 
Chorus
e|--------------------------------------------------------------------|
b|--------------------------------------------------------------------|
G|-(10)9----(10)9----(10)9(10)9----(10)9----(12)(9)---(10)(9)---------|
D|------(10)-----(10)----------(10)-----(10)-------(10)---------------|
A|--------------------------------------------------------------------|
D|--------------------------------------------------------------------|


GUITAR 1
Bridge x8
e|-0--0--0-7--7--7---------------------------------------------------|
b|--6--6--6-6--5--5--------------------------------------------------|
G|---5--5----5--6----------------------------------------------------|
D|-------------------------------------------------------------------|
A|-------------------------------------------------------------------|
D|-------------------------------------------------------------------|

GUITAR 2
Bridge part 1 x4
e|--------------------------------------------------------------------|
b|--------------------------------------------------------------------|
G|--------------------------------------------------------------------|
D|-0~~~~~~~~~~~~(10)~~~(10)~~~~~~-------------------------------------|
A|-0~~~~~~~~~~~~8~~~~~~(10)~~~~~~-------------------------------------|
D|-0~~~~~~~~~~~~8~~~~~~(10)~~~~~~-------------------------------------|

GUITAR 1
Bridge x4
(listen for the changes)
e|--------------------------------------------------------------------|
b|--------------------------------------------------------------------|
G|--------------------------------------------------------------------|
D|-000000000088888(10)(10)(10)(10)(10)(10)(10)(10)(10)----------------|
A|-000000000088888(10)(10)(10)(10)(10)(10)(10)(10)(10)----------------|
D|-000000000088888(10)(10)(10)(10)(10)(10)(10)(10)(10)----------------|
pm ...................................................


GUITAR 1
Chorus x8
e|--------------------------------------------------------------------|
b|--------------------------------------------------------------------|
G|--------------------------------------------------------------------|
D|-000000000088888(10)(10)(10)(10)(10)(10)(10)(10)(10)----------------|
A|-000000000088888(10)(10)(10)(10)(10)(10)(10)(10)(10)----------------|
D|-000000000088888(10)(10)(10)(10)(10)(10)(10)(10)(10)----------------|

GUITAR 2 
Chorus
e|--------------------------------------------------------------------|
b|--------------------------------------------------------------------|
G|-(10)9----(10)9----(10)9(10)9----(10)9----(12)(9)---(10)(9)---------|
D|------(10)-----(10)----------(10)-----(10)-------(10)---------------|
A|--------------------------------------------------------------------|
D|--------------------------------------------------------------------|

GUITAR 1
let ring out
End on:
e|----------------|
b|----------------|
G|----------------|
D|-0~~~~~---------|
A|-0~~~~~---------|
D|-0~~~~~---------|

GUITAR 2
End on:
e|----------------|
b|----------------|
G|-(10)(w/bend-----------|
D|----------------|
A|----------------|
D|----------------|


Tap to rate this tab
# A B C D E F G H I J K L M N O P Q R S T U V W X Y Z