Song name
# A B C D E F G H I J K L M N O P Q R S T U V W X Y Z

Sekoys - Weg tab

Help us improve GuitareTab! Take a short survey!
The Sekoys - Weg (Album: The Sekoys are landing)


Intro [Gitarre 1]:
C/D/e 2x

Strophe: [Gitarre 1]:
D/C                                                 D
  Schon allein dich morgens beim Aufstehn zu sehn,
e
macht es wert mit dir zu gehn!
D      C
Noch tausend andre Dinge, die mir an dir gefalln,
D      e
doch diese schnen Dinge lass ich langsam falln,
D        C
denn du gehst fort,
D     e
ja du gehst fort.
D        C
Um ein anderen Ort zu beglcken,
D     e                            D/C/D/e/D/C/D/e/D
wo es gibt keine Sicherheitslcken.  *
C
Du bist weg, doch du musst wissen,
D    e
die Zeit ohne dich ist beschissen!
D   C
Zuviel Komplikationen um dich wieder zu sehn,
D    e
ich muss meinen Weg alleine gehn!
D     G
Doch irgendwann werden wir uns wiedersehen,
D
auch wenn dann nur fr ne kurze Zeit.
    e
Ich warte hier auf dich, ich bleibe stehen,
     A
auch wenn es dauert ne Ewigkeit!
D    G
Ich liebe dich und kein Weg ist zu gro;
     D
Ich hoffe du siehst das genauso, wie ich!?
       e
Irgendwann ziehen wir das groe Los
            A                          G/D           e        A
und dann schweben wir beide schwerel**-o-s, schwerel-o-s, ohohohos.
          G
-schwere: Ich und du, wir beide zusammen,
  D
fliegen ab sofort ber all die Schranken,
e
die uns aufhalten wolln zu lieben,
        A
ich schwebe mit dir, auf Wolke-7.***
G
Eigentlich kein Sinn es noch weiter zu ziehen
D
uns ists egal, denn wir fliegen;
e
In uns und um uns einander rum:
A
Du bist schon lang weg
         D        G     D     e  D/C/D/e/D/C/D/e/D
ich komm einfach nicht drumm rum!  **
C
Du bist weg, doch du musst wissen,
D    e
die Zeit ohne dich, war beschissen.
 D      C
Keine Trauer, aus der man nie wieder rauskommt,
D      e                                D
nur schade wenn man, im Trauertal wohnt! **

Outro:
C/D/e 2x*


*  [Gitarre 2] =  e----------------------------------------|
                  h----1--------1---------0-------0--------|
                  g--------0--------0---------0-------0----|
                  d------2--------2---------2-------2------|
                  a--3--------3-------3-2-------2-------2--|
                  e----------------------------------------| 2x

** [Gitarre 2] =  e--3~5-5-5-3-5-3--3~5-5-5-3-3-5--3~5-5-5-7-5-7--3~5-5-5-5--3-5-3--|
                  a-----------------------------------------------------------------|
                  g-----------------------------------------------------------------|
                  d-----------------------------------------------------------------|
                  a-----------------------------------------------------------------|
                  e-----------------------------------------------------------------|

***[Gitarre 2] =  e--3~5-5-5-5-3--|
                  h---------------|
                  g---------------|
                  d---------------|
                  a---------------|
                  e---------------|
Related for Weg tab