Guitaretab - guitar tabs
Song name
# A B C D E F G H I J K L M N O P Q R S T U V W X Y Z
Home / S / Sekoys / 11 03 tab

Sekoys - 11 03 tab

The Sekoys - 11/03 (Album: The Sekoys are landing)


Part 1 [Gitarre 1]:
e---------------------------------------------------|
h----------0---------------0------------------------|
g------2-------2-------2-------2-------0-------0----|
d----2---2---2---2---2---2---2---2---2---2---0---0--|
a--0---------------0---------------3-------2--------|
e---------------------------------------------------| 2x

Part 2 [Gitarre 1]:
e----------0-----------------0----------------0--------------------------|
h--------0---0-------------0---0------------0---0------------------------|
g------2-------2---------0-------0--------0-------0----------------------|
d----2-----------2-----2-----------2----0-----------0-------0-------0----|
a--0---------------0-3--------------3-2---------------2---2---2---0---0--|
e-------------------------------------------------------3-------2--------| 

Part 3 [Gitarre 1]:
e-------------------------------------------|
h--0-------0-------0------------------------|
g------2-------0-------0---0----------------|
d----2---2---2---2---0---0-----0---0---0----|
a--0-------3-------2---------2---2---0---0--|
e--------------------------3-------2--------| 2x
[ Tab from: http://www.guitaretab.com/s/sekoys/53249.html ]
Part 4 [Gitarre 1]:
e-------------------------------------------:--0~~--|
h-------------------------------------------:--0~~--|
g------2-------0-------0--------------------:--0~~--|
d----2---2---2---2---0---0-----0-------0----:--2~~--|
a--0-------3-------2---------2---2---0---0--:--2~~--|
e--------------------------3-------2--------:--0~~--|


Part 5 [Gitarre 1]:
e-------------------------------------------------------------------:--0~~~~~--|
h----------0---------------0----------------------------------------:--0~~~~~--|
g------2-------2-------2-------2-------0-------0--------------------:--0~~~~~--|
d----2---2---2---2---2---2---2---2---2---2---0---0-----0-------0----:--2~~~~~--|
a--0---------------0---------------3-------2---------2---0---0---0--:--2~~~~~--|
e--------------------------------------------------3-------2--------:--0~~~~~--| 

& [Gitarre 2 (spielt nebenbei folgende Akkorde)]:
e--0--|--0--|--0--|--0--|--0--|          e--0~~~~~--|
h--0--|--0--|--0--|--0--|--0--|          h--0~~~~~--|
g--2--|--0--|--0--|--0--|--0--|          g--0~~~~~--|
d--2--|--2--|--0--|--0--|--0--|          d--2~~~~~--|
a--0--|--3--|--2--|--2--|--0--|          a--2~~~~~--|
e--0--|--0--|--0--|--3--|--2--| 2x, dann e--0~~~~~--|
Related for 11 03 tab