Song name
# A B C D E F G H I J K L M N O P Q R S T U V W X Y Z

Selah Sue - On The Run tab

0:00

e-------3--------3------3---------8p6----6p3------------------------|
b-----4--------4------4--------4-------------6p4--------------------|
g-5-5------5-5------5--------5--------------------------------------|
d-6--------3--------5------5----------------------------------------|
a--------------------------3----------------------------------------|
E-------------------------------------------------------------------|

e-------3-------3--------3--------6h8p6-----------------------------|
b-----4-------5--------4----------------6h8p6-4h6p4-----------------|
g-5-5-----5-5------5-5------------------------------5h7p5-----------|
d-6-------5--------5------------------------------------------------|
a--------------------------3~~--------------------------------------|
E-------------------------------------------------------------------|

Repeats again @ 1:11

Leave comments and suggestions.  juhan6@gmail.com
Tap to rate this tab
# A B C D E F G H I J K L M N O P Q R S T U V W X Y Z