Guitaretab - guitar tabs
Song name
# A B C D E F G H I J K L M N O P Q R S T U V W X Y Z

Selah - Sweet Jesus tab

-----------------------------------------------------------------------
Sweet Jesus - Selah
-----------------------------------------------------------------------
Tabbed by: Andy
Email: your_star_arr@yahoo.com

Tuning: Standard (EADGBe)
h = hammer on

This is as absolutely close to the CD that I could get, 
but feel free to play around with the chords on your own!!

	Intro
e|------------------------------------------------------------3---2---|
B|------0h1--------------0h1---------------3---1-0------------3---3---|
G|------------0----------------0---------0---------2-------2----------|
D|--------------------2----------------2-----------------0------0-----|
A|---2--------------0--------0-------3-------3------------------------|
E|-3--------3---------------------------------------------------------|
                                                      
	Verse
e|-----------------------------------------------------------2-------2|
B|-------0--------0--------1-------1--------1-------1------3-------3--|
G|-----0--------0--------0-------0--------0-------0------2-------2----|
D|---------------------2-------2--------2-------2------0-------0------|
A|---2--------2------0-------0--------3-------3-----------------------|
E|-3--------3---------------------------------------------------------|

e|-----------------------------------------------------------2-------2|
B|-------0--------0--------1-------1--------1-------1------3-------3--|
G|-----0--------0--------0-------0--------0-------0------2-------2----|
D|---------------------2-------2--------2-------2------0-------0------|
A|---2--------2------0-------0--------3-------3-----------------------|
E|-3--------3---------------------------------------------------------|

e|--------------------------------------------------------------------|
B|-------3-------3-------3-------3-------1--------------3-------3-----|
G|-----0-------0-------0-------0-------0-------0------0-------0-------|
D|---2-------2-------0-------0-------2-------0------2-------2---------|
A|-3-------3-------2-------2-------0-------2------3-------3-----------|
E|--------------------------------------------------------------------|

e|--------------------------------------------------------------------|
B|-------0-------0-------1-------1-------------3----------------------|
G|-----0-------0-------0-------0-------0-----2------------------------|
D|-------------------2-------2-------2-----0--------------------------|
A|---2-------2-----0-------0-------3----------------------------------|
E|-3-------3----------------------------------------------------------|

	Repeat Intro
e|------------------------------------------------------------3---2---|
B|------0h1--------------0h1---------------3---1-0------------3---3---|
G|------------0----------------0---------0---------2-------2----------|
D|--------------------2----------------2-----------------0------0-----|
A|---2--------------0--------0-------3-------3------------------------|
E|-3--------3---------------------------------------------------------|

	2nd Verse
e|-----------------------------------------------------------2-------2|
B|-------0--------0--------1-------1--------1-------1------3-------3--|
G|-----0--------0--------0-------0--------0-------0------2-------2----|
D|---------------------2-------2--------2-------2------0-------0------|
A|---2--------2------0-------0--------3-------3-----------------------|
E|-3--------3---------------------------------------------------------|

e|-----------------------------------------------------------2-------2|
B|-------0--------0--------1-------1--------1-------1------3-------3--|
G|-----0--------0--------0-------0--------0-------0------2-------2----|
D|---------------------2-------2--------2-------2------0-------0------|
A|---2--------2------0-------0--------3-------3-----------------------|
E|-3--------3---------------------------------------------------------|
[ Tab from: http://www.guitaretab.com/s/selah/162856.html ]
e|--------------------------------------------------------------------|
B|-------3-------3-------3-------3-------1--------------3-------3-----|
G|-----0-------0-------0-------0-------0-------0------0-------0-------|
D|---2-------2-------0-------0-------2-------0------2-------2---------|
A|-3-------3-------2-------2-------0-------2------3-------3-----------|
E|--------------------------------------------------------------------|

e|---------------------------------------------2----------------------|
B|-------0-------0-------1-------1-----1-------3----------------------|
G|-----0-------0-------0-------0-------0-----2---2--------------------|
D|-------------------2-------2-------2---2-0--------------------------|
A|---2-------2-----0-------0-------3----------------------------------|
E|-3-------3----------------------------------------------------------|

	Bridge
e|----------------------------------0-----0-2-----2-3-----------------|
B|-------3-------3-------3-------3--------------3---------1-------1---|
G|-----0-------0-------0-------0--------------2---------0-------0-----|
D|---4-------4-------4-------4----------2---0---------2-------2-------|
A|-3-------3-------2-------2----------2-------------3-------3---------|
E|----------------------------------0---------------------------------|

e|----------------------------------0-----0-2-3-5-2-3-----------------|
B|-------3-------3-------3-------3------------------------1-----------|
G|-----0-------0-------0-------0------------------------0-------------|
D|---4-------4-------4-------4----------2---0---------2---------------|
A|-3-------3-------2-------2----------2-------------3-----------------|
E|----------------------------------0---------------------------------|

	3rd Verse/Ending
e|-----------------------------------------------------------3-2------|
B|-------0-----------------0-1--------------1--------------3-----3----|
G|-----2----------------------------------0-------0------2---------2--|
D|---------------------2----------------2-------2------0--------------|
A|---2---------------0----------------3-------3-----------------------|
E|-3------------------------------------------------------------------|

e|-----------------------------------------------------------2-------2|
B|-------0-----------------1----------------1--------------3-------3--|
G|-----0--------0--------0-------0--------0-------0------2-------2----|
D|---------------------2-------2---2----2-------2---2--0-------0------|
A|---2--------2---2--0-------0--------3-------3-----------------------|
E|-3--------3---------------------------------------------------------|

e|--------------------------------------------------------------------|
B|-------3---------------3---------------1--------------3-------------|
G|-----0-------0-------0-------0-------0-------0------0---------------|
D|---2-------2-------0-------0-------2-------0------2-----------------|
A|-3-------3-------2-------2-------0-------2------3-------------------|
E|--------------------------------------------------------------------|

e|---------------------------------------------2--3---2---0-----------|
B|-------0---------------1-------------1-------3--------------3-------|
G|-----2---0-----------0-------0-------0-----2------0---0---0---------|
D|-------------------2-------2-------2-----0------2---0---------0-----|
A|---2-------------0-------0-------3----------------------3---2-------|
E|-3------------------------------------------------------------------|

e|-------3------------------------0---2------------3------------------|
B|-1---------------3-----3--------1---3---------0--3------------------|
G|-----0-------0-------0-------0--0---2-------2----0------------------|
D|---2-------2---0---0-------0----2---0------------0------------------|
A|-0-------0-------2-------2------3---------2------2------------------|
E|----------------------------------------3--------3------------------|


All Rights belong to Selah and Curb Records
And all Glory be to God!
Related for Sweet Jesus tab