Song name
# A B C D E F G H I J K L M N O P Q R S T U V W X Y Z

Select Start - Kiss Your Genre Goodbye tab

This is my first tab, so please rate!
Check them out on myspace.com/selectstart


Intro Bit
-This part is played through four times
D#|--------------------------------------------------------|
A#|--------------------------------------------------------|
F#|-----------------------7--------9-------7---------------|
C#|---------4-7-4-7/9-------7/9-----4-7--------------------|
G#|------5-------------------------------------------------|
C#|--------------------------------------------------------|

Verse
-Once again, played four times.
The rhythm pattern isn't too hard to figure out if you listen to the song.
D#|-------------------------------------------|
A#|-------------------------------------------|
F#|-------------------------------------------|
C#|----4---5---7---9------4---5---7---0-------|
G#|----4---5---7---9------4---5---7---0-------|
C#|----4---5---7---9------4---5---7---0-------|

Pre-chorus
-Once again, the rhythm isn't hard to figure out.
D#|---------------------|
A#|---------------------|
F#|--4--------4---5-----|
C#|--4---2----4---5-----|
G#|--2---2----2---5-----|
C#|------2--------5-----|

First chorus
D#|-------------------------------------------------------|
A#|-------------------------------------------------------|
F#|-------7----4---------------------4--------------------|
C#|--0----x----x---4---5---7-----0---4---4---5---7--------|
G#|--0----5----2---4---5---7-----0---2---4---5---7--------|
C#|--0-------------4---5---7-----0-------4---5---7--------|

After this, play the intro part another four times
The second verse is the same as the first. I never figured out the lead part under it, 
I'll do that soon and post it as soon as I have it done.

Second pre-chorus
-Just kinda mute the strings a little and let it ring slightly.
D#|------|
A#|------|
F#|------|
C#|--0---|
G#|--0---|
C#|--0---|

Second chorus
D#|-------------------------------------------------------|
A#|-------------------------------------------------------|
F#|------4----------------------14---4--------------------|
C#|--0---4---4---5---7------0---x----x---4---5---7--------|
G#|--0---2---4---5---7------0---12---2---4---5---7--------|
C#|--0-------4---5---7------0------------4---5---7--------|

Bridge
-This here is played under the little keyboard solo thing
D#|-----------------------|
A#|-----------------------|
F#|-------4---------------|
C#|---0---4---4---5---7---|
G#|---0---2---4---5---7---|
C#|---0-------4---5---7---|

First part of the guitar solo
-This is played through four times.
D#|------------------------|
A#|----------8-7---7-------|
F#|---7p6---------7---7----|
C#|--------7---------------|
G#|------------------------|
C#|------------------------|

-Second half of the solo
D#|-----------------10h12-10h12p10-----15p14----12----------------|
A#|--7-8-10-8-10/12----------------12--------15-----15------------|
F#|---------------------------------------------------------------|
C#|---------------------------------------------------------------|
G#|---------------------------------------------------------------|
C#|---------------------------------------------------------------|

D#|-----------------10h12-10h12p10-------------------------|
A#|--7-8-10-8-10/12----------------12p10-------------------|
F#|--------------------------------------12p11-9--7--------|
C#|--------------------------------------------------------|
F#|--------------------------------------------------------|
C#|--------------------------------------------------------|

Final chorus
D#|----------------------------------------------|
A#|----------------------------------------------|
F#|---4---------------------4--------------------|
C#|---4---4---5---7-----0---4---4---5---7--------|
G#|---2---4---5---7-----0---2---4---5---7--------|
C#|-------4---5---7-----0-------4---5---7--------|

After this, play the little intro bit another four times.


| /  slide up
| \  slide down
| h  hammer-on
| p  pull-off
| ~  vibrato
| +  harmonic
| x  Mute note
===============================================================================
Tap to rate this tab
 
# A B C D E F G H I J K L M N O P Q R S T U V W X Y Z