Song name
# A B C D E F G H I J K L M N O P Q R S T U V W X Y Z

Select Start - Oh So Epic tab

Band: Select Start
Song: Oh So Epic
Album: <3


Verse 1:
e|----------------------------------------------------------|
B|----------------------------------------------------------|
G|-44--444444--444444--777777-------------------------------|
D|-44--444444--222222--555555--444444-----------------------| 1x
A|-22--222222--222222--555555--000000-----------------------|
D|-------------222222--555555--000000-----------------------|
       ......  ......  ......  ......

e|----------------------------------------------------------|
B|----------------------------------------------------------|
G|---444444--444444--777777---------------------------------|
D|---444444--222222--555555--4-44-44-4----------------------| 3x
A|---222222--222222--555555--0-00-00-0----------------------|
D|-----------222222--555555--0-00-00-0----------------------|
     .. ..   .. ..   .. ..   

Pre-Chorus:
e|----------------------------------------------------------|
B|----------------------------------------------------------|
G|---77--77/9--99/11-1111-1111/7--77/6--66/11-11-99-99--9---|
D|---55--55/7--77/9--9-9--9-9-/5--55/4--44/9--9--77-77--7---|
A|---55--55/7--77/9--9-9--9-9-/5--55/4--44/9--9--77-77--7---|
D|---55--55/7--77/9--9-9--9-9-/5--55/4--44/9--9--77-77--7---|

Chorus 1:
e|----------------------------------------------------------|
B|----------------------------------------------------------|
G|---7-~-------11~--11~--7-~--6-~---------------------------|
D|---4-~--8-~--9-~--9-~--5-~--5-~---------------------------| 1x
A|---0-~--4-~--9-~--9-~--5-~--0-~---------------------------|
D|---0-~--4-~--9-~--9-~--5-~--0-~---------------------------|

e|----------------------------------------------------------|
B|----------------------------------------------------------|
G|---7777--------44444444--77777777--6666-------------------|
D|---4444--8888--44444444--55555555--5555-------------------| 1x
A|---0000--4444--22222222--55555555--0000-------------------|
D|---0000--4444------------55555555--0000-------------------|

Verse 2:
e|----------------------------------------------------------|
B|----------------------------------------------------------|
G|---444444--444444--777777---------------------------------|
D|---444444--222222--555555--444444-------------------------| 2x
A|---222222--222222--555555--000000-------------------------|
D|-----------222222--555555--000000-------------------------|
     ......  ......  ......  ......

 (Listen for strumming)
e|----------------------------------------------------------|
B|----------------------------------------------------------|
G|---4--44--4--44--7--77------------------------------------|
D|---4--44--2--22--5--55--4-44-44-4-------------------------| 2x
A|---2--22--2--22--5--55--0-00-00-0-------------------------|
D|----------2--22--5--55--0-00-00-0-------------------------|
        
Pre-Chorus:
e|----------------------------------------------------------|
B|----------------------------------------------------------|
G|---77--77/9--99/11-1111-1111/7--77/6--66/11-11-99-99--9---|
D|---55--55/7--77/9--9-9--9-9-/5--55/4--44/9--9--77-77--7---|
A|---55--55/7--77/9--9-9--9-9-/5--55/4--44/9--9--77-77--7---|
D|---55--55/7--77/9--9-9--9-9-/5--55/4--44/9--9--77-77--7---|

Chorus 2:
e|----------------------------------------------------------|
B|----------------------------------------------------------|
G|---7777--------44444444--77777777--6666-------------------|
D|---4444--8888--44444444--55555555--5555-------------------| 2x
A|---0000--4444--22222222--55555555--0000-------------------|
D|---0000--4444------------55555555--0000-------------------|

Bridge:
e|----------------------------------------------------------|
B|----------------------------------------------------------|
G|----------------------------------------------------------|
D|---9999--7777--0000--4444--5555--0000--7777---------------| 1x
A|---9999--7777--0000--4444--5555--0000--7777---------------|
D|---9999--7777--0000--4444--5555--0000--7777---------------|
     ....  ....  ....  ....  ....  ....  ....

e|----------------------------------------------------------|
B|----------------------------------------------------------|
G|----------------------------------------------------------|
D|---9999--7777--0000--4444--5555--0000--777777-------------| 1x
A|---9999--7777--0000--4444--5555--0000--777777-------------|
D|---9999--7777--0000--4444--5555--0000--777777-------------|
     ....  ....  ....  ....  ....  ....  ..

Chorus 3:
e|----------------------------------------------------------|
B|----------------------------------------------------------|
G|---7-~-------------------77777777--6666-------------------|
D|---4-~-------------------55555555--5555-------------------| 1x
A|---0-~-------------------55555555--0000-------------------|
D|---0-~-------------------55555555--0000-------------------|

e|----------------------------------------------------------|
B|----------------------------------------------------------|
G|---7777--------44444444--77777777--6666-------------------|
D|---4444--8888--44444444--55555555--5555-------------------| 1x
A|---0000--4444--22222222--55555555--0000-------------------|
D|---0000--4444------------55555555--0000-------------------|

Outro:
e|----------------------------------------------------------|
B|----------------------------------------------------------|
G|---7777--------44444444--77777777--6666-------------------|
D|---4444--8888--44444444--55555555--5555-------------------| 1x
A|---0000--4444--22222222--55555555--0000-------------------|
D|---0000--4444------------55555555--0000-------------------|

e|---------------------------------------------------------------|
B|---------------------------------------------------------------|
G|---77-7-7----------44-4-4-44-4-4--77-7-7-77-7-7--66-6-6--77----|
D|---44-4-4--88-8-8--44-4-4-44-4-4--55-5-5-55-5-5--55-5-5--77----| 1x
A|---00-0-0--44-4-4--22-2-2-22-2-2--55-5-5-55-5-5--00-0-0--55----|
D|---00-0-0--44-4-4-----------------55-5-5-55-5-5--00-0-0--------|


tabbed by playluis

for corrections or suggestions e-mail me at looie_91@yahoo.com
Tap to rate this tab
# A B C D E F G H I J K L M N O P Q R S T U V W X Y Z