Selecter - Too Much Pressue tab

one of my favorite ska songs


      "TOO MUCH PRESSURE" by THE SELECTER

intro 2x
|-5-5-5-5-5-|-----|-----------|-----|-5-5-5-5-5-|----------|
|-5-5-5-5-5-|-----|-7-7-7-7-7-|-----|-5-5-5-5-5-|----------|
|-6-6-6-6-6-|-4-6-|-7-7-7-7-7-|-4---|-6-6-6-6-6-|-4-6-7~~~-|
|-7-7-7-7-7-|-----|-7-7-7-7-7-|---7-|-7-7-7-7-7-|----------|
|-----------|-----|-----------|-----|-----------|----------|
|-----------|-----|-----------|-----|-----------|----------|

|-5-5-5-5-5-|-----|-----------|-----|-5-5-5-5-5-|----------|
|-5-5-5-5-5-|-----|-7-7-7-7-7-|-----|-5-5-5-5-5-|----------|
|-6-6-6-6-6-|-4-6-|-7-7-7-7-7-|-4---|-6-6-6-6-6-|-4-6-7~~~-|
|-7-7-7-7-7-|-----|-7-7-7-7-7-|---7-|-7-7-7-7-7-|----------|
|-----------|-----|-----------|-----|-----------|----------|
|-----------|-----|-----------|-----|-----------|----------|

verse(upstroke these chords)

     too much pressure!
|--5--5--5--5---3--3--3--3--|
|--5--5--5--5---3--3--3--3--|
|--6--6--6--6---4--4--4--4--|
|--7--7--7--7---5--5--5--5--|
|---------------------------|
|---------------------------|

guitar riff goes

|-----------------------|-----------------|-----------------------|-----------------|
|-----------------------|-----------------|-----------------------|-----------------|
|-----------------------|-----------------|-----------------------|-----------------|
|-----------------------|-7--5-5-5--7-7-7-|-----------------------|-7--5-5-5--7-7-7-|
|----------7-7----------|-----------------|----------7-7----------|-----------------|
|-5-5--9-9-----9-9--5~~-|-----------------|-5-5--9-9-----9-9--5~~-|-----------------|
and you repeat that with the verses until you get back to:

|-5-5-5-5-5-|-----|-----------|-----|-5-5-5-5-5-|----------|
|-5-5-5-5-5-|-----|-7-7-7-7-7-|-----|-5-5-5-5-5-|----------|
|-6-6-6-6-6-|-4-6-|-7-7-7-7-7-|-4---|-6-6-6-6-6-|-4-6-7~~~-|
|-7-7-7-7-7-|-----|-7-7-7-7-7-|---7-|-7-7-7-7-7-|----------|
|-----------|-----|-----------|-----|-----------|----------|
|-----------|-----|-----------|-----|-----------|----------|

|-5-5-5-5-5-|-----|-----------|-----|-5-5-5-5-5-|----------|
|-5-5-5-5-5-|-----|-7-7-7-7-7-|-----|-5-5-5-5-5-|----------|
|-6-6-6-6-6-|-4-6-|-7-7-7-7-7-|-4---|-6-6-6-6-6-|-4-6-7~~~-|
|-7-7-7-7-7-|-----|-7-7-7-7-7-|---7-|-7-7-7-7-7-|----------|
|-----------|-----|-----------|-----|-----------|----------|
|-----------|-----|-----------|-----|-----------|----------|


and thats the song! it's a hell of a ska jam! chords are just A-D for the intro and A-G 
for the verses

-Bert
Tap to rate this tab
 
# A B C D E F G H I J K L M N O P Q R S T U V W X Y Z