Song name
# A B C D E F G H I J K L M N O P Q R S T U V W X Y Z

Selecter - They Make Me Mad chords

Highlighted       Show chord diagrams
-----------------------------------------------------------------------------
                             THEY MAKE ME MAD - The Selecter 
-----------------------------------------------------------------------------
Tabbed by: Tyler
E-mail: hill.tyler63@yahoo.com

Tuning: Standard

Intro/verse/instrumental parts/chorus
   Dm               G 
E|-5--------------|-3--------------|    
B|-6--------------|-3--------------|    
G|-7--------------|-4--------------|    
D|----------------|----------------|    
A|----------------|----------------|    
E|----------------|----------------|   

Pre-chorus
   Dm               Em               Em               Em 
E|-5--------------|-7--------------|-7--------------|-7--------------|
B|-6--------------|-8--------------|-8--------------|-8--------------|
G|-7--------------|-9--------------|-9--------------|-9--------------|
D|----------------|----------------|----------------|----------------|
A|----------------|----------------|----------------|----------------|
E|----------------|----------------|----------------|----------------|

End on
   Dm
E|-5--------------|
B|-6--------------|
G|-7--------------|
D|----------------|
A|----------------|
E|----------------|

Tap to rate this tab
 
# A B C D E F G H I J K L M N O P Q R S T U V W X Y Z