Song name
# A B C D E F G H I J K L M N O P Q R S T U V W X Y Z

Selecter - My Collie Not A Dog tab

-------------------------------------------------------------------------------
                             MY COLLIE (NOT A DOG) - The Selecter
-------------------------------------------------------------------------------
Tabbed by: Tyler
E-mail: hill.tyler63@yahoo.com

Tuning: Standard

I know there is already a tab pro and a power tab for this song, but this is just for 
those of you (like me) who don't have tab pro or power tab.

Guitar during the "This is a government health warning" part
e|---------------------------------------------------------------------------|
B|---------------------------------------------------------------------------|
G|---------------------------------------------------------------------------|
D|-------9-9---8--8--9------9-9---8--8---------------------------------------|
A|-6---6---7---9--9--6----6---7---9--9---------------------------------------|
E|---------------------------------------------------------------------------|

Guitar during verses/organ solo
   B               E       F#
e|-x-7-x-7-x-7-x-7-x-7-x-7-x-6-x-6-x-----------------------------------------|
B|-x-7-x-7-x-7-x-7-x-9-x-9-x-7-x-7-x-----------------------------------------|
G|-x-8-x-8-x-8-x-8-x-9-x-9-x-6-x-6-x-----------------------------------------|
D|---------------------------------------------------------------------------|
A|---------------------------------------------------------------------------|
E|---------------------------------------------------------------------------|

Chorus
   E             B             E             F#
e|-x-7-----------x-7-----------x-7-----------x-6-----------------------------|
B|-x-9--x8-then--x-7--x8-then--x-9--x8-then--x-7--x8-------------------------|
G|-x-9-----------x-8-----------x-9-----------x-6-----------------------------|
D|---------------------------------------------------------------------------|
A|---------------------------------------------------------------------------|
E|---------------------------------------------------------------------------|
Tap to rate this tab
# A B C D E F G H I J K L M N O P Q R S T U V W X Y Z