Song name
# A B C D E F G H I J K L M N O P Q R S T U V W X Y Z

Selena Gomez - Winter Wonderland tab

Listen for the rhythms yourself :D
Guitar I
Guitar II

Intro
Guitar I
|-------------------------------------------|
|-----------------10--10--------------------|
|-13--11--9-----9---------------------------|
|-13--11--9---------12--11~-----------------|
|-11---9--7---------------------------------|
|-------------------------------------------|

Guitar II
|-------------------------------------------|
|-------------------------------------------|
|-13--11--9--7------------------------------|
|-13--11--9--7--11--9--7--------------------|
|-11--9---7--5--11--9--7--------------------|
|----------------9--7--5--------------------|


Sleigh bells ring... 0:08
Guitar I
|-------------------------------------------|
|-------------------------------------------|
|----------9---13--11--9--7-----------------|
|-7--7--9--9---13--11--9--7--11--9--7-------|  
|-7--7--9--7---11--9---7--5--11--9--7-------|
|-5--5--7---------------------9--7--5-------| x2


In the meadow... 0:38
Guitar I
|-------------------------------------------|
|-------------------------------------------|
|-6-----6-------9-----9---11-----9----------|
|-6--4--6--x2---9--7--9---11--9--9----------|
|-4--4--4-------7--7--7----9--9--7----------|
|----2-------------5----------7-------------|
 pm.............................


Later on... 0:52
Guitar I
|-----------------------------------------------|
|-----------------------------------------------|
|----------9---13--11--9--7---------------------|
|-7--7--9--9---13--11--9--7--11--8/9--6/7-------|  
|-7--7--9--7---11---9--7--5--11--8/9--6/7-------|
|-5--5--7---------------------9--6/7--4/5-------|


Guitar Solo 1:06
Guitar I
|-------------------------------------------------------------|
|-------------------------------------------------------------|
|-9-99--99--9---9-89--99-9--------9-11-/13-13---11--11-9-99---|
|---------11------------9----9-11--------------------------12-|
|-------------------------------------------------------------|
|-------------------------------------------------------------|

|--------------------------------|
|--------------------------------|
|--------------------------------|
|-11-1111-11--9-99-9-------------|
|-------------------12~----------|
|--------------------------------|

Guitar II
|-------------------------------------------|
|-------------------------------------------|
|----------9---13--11--9--7-----------------|
|-7--7--9--9---13--11--9--7--11--9--7-------|  
|-7--7--9--7---11--9---7--5--11--9--7-------|
|-5--5--7---------------------9--7--5-------|


In the meadow... 1:21
Guitar I
|-------------------------------------------|
|-------------------------------------------|
|-6-----6-------9-----9---11-----9----------|
|-6--4--6--x2---9--7--9---11--9--9----------|
|-4--4--4-------7--7--7----9--9--7----------|
|----2-------------5----------7-------------|
 pm.....................


Later on... 1:35
Guitar I
|-------------------------------------------|
|-------------------------------------------|
|----------9---13--11--9--7-----------------|
|-7--7--9--9---13--11--9--7--11--9--7-------|  
|-7--7--9--7---11---9--7--5--11--9--7-------|
|-5--5--7---------------------9--7--5-------|


To face unafraid... 1:50
Guitar I
|-----------------------------------------|
|-----------------------------------------|
|-13--11--9--7-----------------9---14-----|
|-13--11--9--7--11--9--7---9---9---14---7~|  
|-11---9--7--5--11--9--7---9---7---12---7~|
|----------------9--7--5---7------------5~|
Tap to rate this tab
# A B C D E F G H I J K L M N O P Q R S T U V W X Y Z