Song name
# A B C D E F G H I J K L M N O P Q R S T U V W X Y Z

Selena Gomez - Kiss And Tell tab

Tuning: Standard

Song: Kiss & Tell
Artist: Selena & The Scene
Album: Kiss & Tell (2009)

Intro:
e|-----|
B|-----|
G|-----|
D|--7--|
A|--7--|
E|--5--| 

Verse:
e|-------|
B|-------|
G|-------|
D|-7--5--| x12
A|-7-5--|
E|-5--3--| (just figure out the strumming)

Chorus:
e|-------------|
B|-------------|
G|-------8-----|
D|-7--7--8-4--| 
A|-7-7--6-4--|
E|-5--5----2--| 

e|----------------|
B|----------------|
G|-------8--------|
D|-7--7--8-4--7--| 
A|-7-7--6-4--7--|
E|-5--5----2--5--| 

Postchorus:
e|-----|
B|-----|
G|-----|
D|--7--|
A|--7--|
E|--5--| 

Verse:
e|-------|
B|-------|
G|-------|
D|-7--5--| x12
A|-7-5--|
E|-5--3--|
					
Chorus:
e|-------------|
B|-------------|
G|-------8-----|
D|-7--7--8-4--| 
A|-7-7--6-4--|
E|-5--5----2--| 

e|----------------|
B|----------------|
G|-------8--------|
D|-7--7--8-4--7--| 
A|-7-7--6-4--7--|
E|-5--5----2--5--| 

Bridge:
e|-----|
B|-----|
G|-----|
D|--7--| (play till the chorus)
A|--7--|
E|--5--| 

Chorus:
e|-------------|
B|-------------|
G|-------8-----|
D|-7--7--8-4--| 
A|-7-7--6-4--|
E|-5--5----2--| 

e|----------------|
B|----------------|
G|-------8--------|
D|-7--7--8-4--7--| 
A|-7-7--6-4--7--|
E|-5--5----2--5--| x2

Outro:
e|-----|
B|-----|
G|-----|
D|--7--|
A|--7--|
E|--5--| 
Tap to rate this tab
 
# A B C D E F G H I J K L M N O P Q R S T U V W X Y Z