Song name
# A B C D E F G H I J K L M N O P Q R S T U V W X Y Z

Selena Gomez - I Promise You tab

Tuning: Standard

Song: I Promise You
Artist: Selena & The Scene
Album: Kiss & Tell

Intro:
e|------------|
B|------------|
G|----8-------|
D|-4--8--6-2-|
A|-4--6--6-2-|
E|-2-----4--0-|

Verse:
e|------------|
B|------------|
G|----8-------|
D|-4--8--6-2-|
A|-4--6--6-2-|
E|-2-----4--0-| x2

Prechorus:
e|------------------|
B|------------------|
G|-----------4------|
D|--6--4--6--4--4---|
A|--6--4--6--2--4---|
E|--4--2--4-----2---| 

Chorus:
e|-------------------|
B|-------------------|
G|----4--------4-----|
D|-2--4--4--2--4--4--|
A|-2--2--4--2--2--4--|
E|-0-----2--0-----2--| x2


Postchorus:
e|------------|
B|------------|
G|----8-------|
D|-4--8--6-2-|
A|-4--6--6-2-|
E|-2-----4--0-|

Verse:
e|------------|
B|------------|
G|----8-------|
D|-4--8--6-2-|
A|-4--6--6-2-|
E|-2-----4--0-| x2

Prechorus:
e|------------------|
B|------------------|
G|-----------4------|
D|--6--4--6--4--4---|
A|--6--4--6--2--4---|
E|--4--2--4-----2---| 

Chorus:
e|-------------------|
B|-------------------|
G|----4--------4-----|
D|-2--4--4--2--4--4--|
A|-2--2--4--2--2--4--|
E|-0-----2--0-----2--| x2

Bridge:
e|--------------------------|
B|--------------------------|
G|-----4-----------4--6--8--|
D|--6-4-2-4-6-4-6-8--|
A|--6-2-2-4-6--2-4-6-|
E|--4-----0-2--4-----------| 

Chorus:
e|-------------------|
B|-------------------|
G|----4--------4-----|
D|-2--4--4--2--4--4--|
A|-2--2--4--2--2--4--|
E|-0-----2--0-----2--| x2

Outro
e|-------------------|
B|-------------------|
G|----4--------4-----|
D|-2--4--4--2--4--4--|
A|-2--2--4--2--2--4--|
E|-0-----2--0-----2--| 

e|----------------|
B|----------------|
G|-4--8--------4--|
D|-4--8--6--2--4--|
A|-2--6--6--2--2--|
E|-------4--0-----| 
Tap to rate this tab
 
# A B C D E F G H I J K L M N O P Q R S T U V W X Y Z