Song name
# A B C D E F G H I J K L M N O P Q R S T U V W X Y Z

Selena Gomez - Crush tab

Tuning: Drop D

Song: Crush
Artist: Selena & The Scene
Album: Kiss & Tell (2009)

Intro:
e|--------|
B|--------|
G|--------|
D|-0-7-5--|
A|-0-7-5--|
D|-0-7-5--| x2

Verse 
e|--------|
B|--------|
G|--------|
D|-0-7-5--|
A|-0-7-5--|
D|-0-7-5--| x7

Prechorus: 
e|---------------|
B|---------------|
G|---------------|
D|-5-0-5-0-5-0-7-|
A|-5-0-5-0-5-0-7-|
D|-5-0-5-0-5-0-7-| 

Chorus:
e|------------|      e|-----------------|
B|------------|      B|-----------------|
G|------------|      G|-----------------|
D|-0-4-0-10-5-|      D|-0-4-0-10-0-4-0-5|
A|-0-4-0-10-5-|      A|-0-4-0-10-0-4-0-5|
D|-0-4-0-10-5-| x4   D|-0-4-0-10-0-4-0-5| x2

Verse 
e|--------|
B|--------|
G|--------|
D|-0-7-5--|
A|-0-7-5--|
D|-0-7-5--| x4

Prechorus: 
e|---------------|
B|---------------|
G|---------------|
D|-5-0-5-0-5-0-7-|
A|-5-0-5-0-5-0-7-|
D|-5-0-5-0-5-0-7-| 

Chorus:
e|------------|      e|-----------------|
B|------------|      B|-----------------|
G|------------|      G|-----------------|
D|-0-4-0-10-5-|      D|-0-4-0-10-0-4-0-5|
A|-0-4-0-10-5-|      A|-0-4-0-10-0-4-0-5|
D|-0-4-0-10-5-| x4   D|-0-4-0-10-0-4-0-5| x2

Bridge:
e|---------------------|
B|---------------------|
G|---------------------|
D|-7-7-5-0---7-7-5-0-5-|
A|-7-8-5-0---7-8-5-0-5-|
D|-7-7-5-0---7-7-5-0-5-|

Prechorus: 
e|---------------|
B|---------------|
G|---------------|
D|-5-0-5-0-5-0-7-|
A|-5-0-5-0-5-0-7-|
D|-5-0-5-0-5-0-7-| 

Chorus:
e|------------|      e|-----------------|
B|------------|      B|-----------------|
G|------------|      G|-----------------|
D|-0-4-0-10-5-|      D|-0-4-0-10-0-4-0-5|
A|-0-4-0-10-5-|      A|-0-4-0-10-0-4-0-5|
D|-0-4-0-10-5-| x2   D|-0-4-0-10-0-4-0-5| x3
Tap to rate this tab
 
# A B C D E F G H I J K L M N O P Q R S T U V W X Y Z