Selena Gomez - Round And Round tab

LISTEN TO THE SONG FOR THE TIMING AND VARIATION OF THE NOTES
Effects - Distortion
youtube.com/HELLIONNUMBER96

Intro/Pre Chorus/Outro:
E|----------------------|
B|-------10-------------|
G|-10-12----12----9-10--|
D|-------------12-------|
A|----------------------|
E|----------------------|

Verse:
E|----------------|
B|----------------|
G|----------------|
D|-7-7-7----------|
A|-5-5-5--8-8-10--|
E|--------6-6--8--|

Chorus:
E|--------------------------------------|
B|--------------------------------------|
G|--------------------------------------|
D|-7-7-7-7-7-7-9/10-10-10-10-5-5-5-5-5--|
A|-5-5-5-5-5-5-7/8---8--8--8-3-3-3-3-3--|
E|--------------------------------------|

Interlude:
E|---------------------------------|
B|---------------------------------|
G|---------------------------------|
D|--7-7-7----------7-7-7-----------|
A|--5-5-5--8-8-10--5-5-5--8-8-8-8--|
E|---------6-6--8---------6-6-6-6--|
Tap to rate this tab
 
# A B C D E F G H I J K L M N O P Q R S T U V W X Y Z