Guitaretab - guitar tabs
Song name
# A B C D E F G H I J K L M N O P Q R S T U V W X Y Z

Selena Gomez - Rock God tab

WATCH LIVE EVENTS FOR THE TIMING AND VARIATION OF THE NOTES
Effects - Distortion & Wah
youtube.com/AliveInTheAfterworld

(Preacher Man Walked Into The Club...)
E|--------|
B|--------|
G|--------|
D|-X------|
A|-X-6-6--|
E|-X-4-4--|

(The Beat And The Bass Cuz I)
E|--------------------------|
B|--------------------------|
G|--------------------------|
D|-6-6-6-6-6-6-6-6-6-6-6-6--|
A|--------------------------|
E|--------------------------|
Palm muted

(Can't Confess...)
E|----------------------------------------------------------------------|
B|----------------------------------------------------------------------|
G|----------------------------------------------------------------------|
D|-6-6-6-6/8-9-9-8-8----X------X-----6-6-6-6/8-9-9-8-8------------------|
A|-4-4-4-4/6-7-7-6-6-6--X-6-6--X-6-6-4-4-4-4/6-7-7-6-6-2-2-2-2-4-4-4-4--|
E|-------------------4--X-4-4--X-4-4-------------------0-0-0-0-2-2-2-2--|

(Stop My Feet From Dancing To The Sound...)
E|--------------------------------------------------------------------------|
B|--------------------------------------------------------------------------|
G|--------------------------------------------------------------------------|
D|-6-6-6--6-6------------8-8-8--8-8------------6-6-6--6-6-4-4-4--4-4-3-3-3--|
A|-4-4-4--4-4-6-6-6--6-6-6-6-6--6-6-6-6-6--6-6-4-4-4--4-4-2-2-2--2-2-1-1-1--|
E|------------4-4-4--4-4------------4-4-4--4-4------------------------------|
[ Tab from: http://www.guitaretab.com/s/selena-gomez/261588.html ]
(Continued)
E|-----------------|
B|-----------------|
G|-----8-10-11-12--|
D|-3-3-X--X--X--X--|
A|-1-1-6--8--9-10--|
E|-----------------|

(No I Wouldn't Change A Thing Even I Could...)
E|--------------------------------------------------------------------------|
B|-------------------------------------16-16-16-16--------------------------|
G|-13-13-13-13-15-15-15-15-16-16-16-16-------------13-13-13-13-15-15-15-15--|
D|--------------------------------------------------------------------------|
A|--------------------------------------------------------------------------|
E|--------------------------------------------------------------------------|

(Continued)
E|--------------------------------------------------------------------------|
B|-------------16b17r16-16-------------------------------------16-16-16-16--|
G|-16-16-16-16-------------13-13-13-13-15-15-15-15-16-16-16-16--------------|
D|--------------------------------------------------------------------------|
A|--------------------------------------------------------------------------|
E|--------------------------------------------------------------------------|

(Continued)
E|--------------------------------------------------|
B|-15-15-15-15--------------------------------------|
G|-------------16-16-16-16-15-15-15-15-15-15-15-15--|
D|--------------------------------------------------|
A|--------------------------------------------------|
E|--------------------------------------------------|
Related for Rock God tab
Rock God chords by Selena Gomez