Selena Gomez - I Promise You chords

Highlighted       Show chord diagrams
Intro: E G#m C#m A


Guitar 2 (Tab):
          A               G#m            C#m                  	A
E|-7----9--11--|-6----7--9---|-7----9--11--7--------|-12--11--9---|
B|---7---------|---4---------|---9------------------|-------------|
G|-------------|-------------|----------------------|-------------|
D|-------------|-------------|----------------------|-------------|
A|-------------|-------------|----------------------|-------------|
E|-------------|-------------|----------------------|-------------|

Verse 1:
  E                  G#m	  
I know that my love
                 C#m
For you is real
It's something true
               A
That we do
Just something natural 
       E
That I feel
                  G#m
When you walk in the room
                       C#m
When you're near
                                       A
I feel my heart skips a beat
The whole world disappears

Refrain 1:
C#m                                        E
    And there's just you and me
                               F#m
Falling head over feet
                        E               B
Let’s take a chance together

Chorus:
A
I know I know
   E
I know I know
                      B
We're gonna make it 
'Cause no one else can
A
Make me feel the 
E                      B
Way that you do
I promise you
A
I know I know
   E
I know I know
                       B
We’re gonna get there
                               A
Today, tomorrow and 
              E            B
Forever we will stay true
I promise you

Interlude: E G#m C#m A

Guitar 2 (Tab):
          A               G#m            C#m                  	A
E|-7----9--11--|-6----7--9---|-7----9--11--7- --|-12--11--9---|
B|---7---------|---4---------|---9------------- |-------------|
G|-------------|-------------|----------------- |-------------|
D|-------------|-------------|----------------- |-------------|
A|-------------|-------------|----------------- |-------------|
E|-------------|-------------|----------------- |-------------|

Verse 1:
  E                  G#m	  
I know that my love
                 C#m
For you is real
It's something true
               A
That we do
Just something natural 
       E
That I feel
                  G#m
When you walk in the room
                       C#m
When you're near
                                       A
I feel my heart skips a beat
The whole world disappears

Refrain 1:
C#m                                        E
    And there's just you and me
                               F#m
Falling head over feet
                        E               B
Let’s take a chance together

Chorus:
A
I know I know
   E
I know I know
                      B
We're gonna make it 
'Cause no one else can
A
Make me feel the 
E                      B
Way that you do
I promise you
A
I know I know
   E
I know I know
                       B
We’re gonna get there
                               A
Today, tomorrow and 
              E            B
Forever we will stay true
I promise you

Interlude: E G#m C#m A

Guitar 2 (Tab):
          A               G#m            C#m                  	A
E|-7----9--11--|-6----7--9---|-7----9--11--7--- |-12--11--9---|
B|---7---------|---4---------|---9------------- |-------------|
G|-------------|-------------|----------------- |-------------|
D|-------------|-------------|----------------- |-------------|
A|-------------|-------------|----------------- |-------------|
E|-------------|-------------|----------------- |-------------|

Verse 1:
  E                  G#m	  
I know that my love
                 C#m
For you is real
It's something true
               A
That we do
Just something natural 
       E
That I feel
                  G#m
When you walk in the room
                       C#m
When you're near
                                       A
I feel my heart skips a beat
The whole world disappears

Refrain 1:
C#m                                        E
    And there's just you and me
                               F#m
Falling head over feet
                        E               B
Let’s take a chance together

Chorus:
A
I know I know
   E
I know I know
                      B
We're gonna make it 
'Cause no one else can
A
Make me feel the 
E                      B
Way that you do
I promise you
A
I know I know
   E
I know I know
                       B
We’re gonna get there
                               A
Today, tomorrow and 
              E            B
Forever we will stay true
I promise you

Interlude: E G#m C#m A

Guitar 2 (Tab):
          A               G#m            C#m                  	A
E|-7----9--11--|-6----7--9---|-7----9--11--7--- |-12--11--9---|
B|---7---------|---4---------|---9------------- |-------------|
G|-------------|-------------|----------------- |-------------|
D|-------------|-------------|----------------- |-------------|
A|-------------|-------------|----------------- |-------------|
E|-------------|-------------|----------------- |-------------|

Verse 2:
E
They say that “we're 
G#m                      C#m
Just too young to know”,
                                      A
But I'm sure heart and soul
                                       E
That I am never letting you go
                G#m
When it's right, it's right
              C#m
And this is it
                                       A
'Cause I'm walking on air
Every single time that we kiss

Refrain 2: 
C#m                                 E
    You make the angels sing
                                        F#m
You give that songbird wings
                  E                  B
You make everything better

Chorus:
A
I know I know
   E
I know I know
                      B
We're gonna make it 
'Cause no one else can
A
Make me feel the 
E                      B
Way that you do
I promise you
A
I know I know
   E
I know I know
                       B
We’re gonna get there
                               A
Today, tomorrow and 
              E            B
Forever we will stay true
I promise you

Bridge:
C#m                       E
   I'll never let you down
                      A
I'll always hear you out
                            B
There is nothing you cannot confide
C#m                          E
You listen when I speak
                                          F#
You make my knees go weak
                                 G#
And I just want you by my side 

(Chorus)
A
I know I know
   E
I know I know
                      B
We're gonna make it 
'Cause no one else can
A
Make me feel the 
E                      B
Way that you do
I promise you
A
I know I know
   E
I know I know
                       B
We’re gonna get there
                               A
Today, tomorrow and 
              E            B
Forever we will stay true
I promise you

Outro:
A      E                        B
We're gonna make it
     A
I promise you
E                   B
Yeah, yeah, yeah
                E       G#m
I promise you
                C#m  A
I promise you
                   E(hold)
I promise you
Tap to rate this tab
 
# A B C D E F G H I J K L M N O P Q R S T U V W X Y Z