Song name
# A B C D E F G H I J K L M N O P Q R S T U V W X Y Z

Selena Gomez - Who Says tab

Hey guys this is my first tab , you can watch me play it here 
http://www.youtube.com/watch?v=Ct-I-rHkFQg

Intro:

e--7---7-7--------------------------------|
B--9-7-9-10-------------------------------|
G--9-9-9-9--------------------------------|
D----9------------------------------------|
A-----------------------------------------|
E-----------------------------------------|

Chorus: E A C#m A
Intro
Chorus
Bridge (Soft spoken part thing)
e---7--------------------------------------|
B-----10-9-7-------------------------------|
G-9----------9-----------------------------| 
D------------------------------------------|
A------------------------------------------|
E------------------------------------------|
(Repeat until build up to chorus then intro before chorus starts again)
Chorus
Tap to rate this tab
 
# A B C D E F G H I J K L M N O P Q R S T U V W X Y Z