Guitaretab - guitar tabs
Song name
# A B C D E F G H I J K L M N O P Q R S T U V W X Y Z

Selena - Fotos Y Recuerdos tab

I am 995869586999% sure this is correct. This was tabbed once before and... well, it 
much sucked.
Questions/Comments? Email me at beany2639@aol.com

R.I.P Selena <33
::::::::::::::::::::::::::::::::::::::::::::::::::::::::::::::::::::::::::::
selena - fotos y recuerdos
standard tuning


E:|------------------------------------------------------|
B:|---------8-11-8-11---11-11-11---11-11-11\9-9-9\8-8-8--|
G:|-------8----------------------------------------------|
D:|--8-8-------------------------------------------------|
A:|------------------------------------------------------|
E:|------------------------------------------------------|
[ Tab from: http://www.guitaretab.com/s/selena/95569.html ]
E:|------------------------------------------------------|
B:|-----------------------------8-11-11-8-11--11-11-11---|
G:|--10--10-7--10-8-7-8-------8--------------------------|
D:|-------------------------8----------------------------|
A:|------------------------------------------------------|
E:|------------------------------------------------------|

E:|-------------------------------------------------------|
B:|--11-11-11\9-9-9\8-8-8---------------------------------|
G:|------------------------10--10-7--10-8-7-8-------------|
D:|-------------------------------------------------------|
A:|-------------------------------------------------------|
E:|-------------------------------------------------------|
Related for Fotos Y Recuerdos tab