Song name
# A B C D E F G H I J K L M N O P Q R S T U V W X Y Z

Self Against City - Tequila Moonlight tab

-------------------------------------------------------------------------------
			   Tequila Moonlight - Self Against City
-------------------------------------------------------------------------------
Tabbed by: bloodred16

Tuning: Standard (EADGBe)

This is an awesome song so I've tried my best. Any corrections, put them in the
comments and I'll review and update the tab :). Hope it's okay, there were some
bits I was a bit unsure about. I've not tabbed out the rhythm, it's easy enough
to work out!

Enjoi...

Intro
e|-------0---------0---------0---------0---------0---------0---------0-------|
B|1---------1---------1------1--1---------3---------3---------3---------3----|
G|--2--2------2--2------2--2------2--2------0--0------0--0------0--0------0--|
D|---3---------3---------3---------3---------2---------2---------2---------3-|
A|---------------------------------------------------------------------------|
E|---------------------------------------------------------------------------|

e|--0------------------------------------------------------------------------|
B|---------------------------------------------------------------------------|
G|0--------------------------------------------------------------------------|
D|---------------------------------------------------------------------------|
A|---------------------------------------------------------------------------|
E|---------------------------------------------------------------------------|

Repeat that intro riff x5

After playing that 5 times play these chords - the rhythm should be easy to
                                               work out.
e|0------0----0--------------------------------------------------------------|
B|1------1----3-both-sound good----------------------------------------------|
G|2------0-OR-0--not sure which----------------------------------------------|
D|3------2----2----is correct------------------------------------------------|
A|0------3----3--------------------------------------------------------------|
E|---------------------------------------------------------------------------|

While those chords are played another guitar plays this x2
e|---------------------------------------------------------------------------|
B|----1-3--------1-3----------1----------1--3--------------------------------|
G|--2----------2------------0----------0-------------------------------------|
D|3----------3------------2----------2---------------------------------------|
A|----------------------3----------3-----------------------------------------|
E|---------------------------------------------------------------------------|

For this next Verse part play these chords - again, rhythm should be easy to
                                             work out.
e|0------0-------------------------------------------------------------------|
B|1------1-------------------------------------------------------------------|
G|2------0-------------------------------------------------------------------|
D|3------2-------------------------------------------------------------------|
A|0------3-------------------------------------------------------------------|
E|---------------------------------------------------------------------------|


Then the next Chorus type part, the "not just about that" the guitar is just;
e|0-----------0--------------------------------------------------------------|
B|1-----------1--------------------------------------------------------------|
G|2--------2--0--------------------------------------------------------------|
D|3--------3--2--------------------------------------------------------------|
A|0--------0--3--------------------------------------------------------------|
E|-----------------x2--------------------------------------------------------|

Then back to this

e|0------0----0--------------------------------------------------------------|
B|1------1----3--------------------------------------------------------------|
G|2------0-OR-0--------------------------------------------------------------|
D|3------2----2--------------------------------------------------------------|
A|0------3----3--------------------------------------------------------------|
E|---------------------------------------------------------------------------|
 |                                                                           |
e|---------------------------------------------------------------------------|
B|----1-3--------1-3----------1----------1--3--------------------------------|
G|--2----------2------------0----------0-------------------------------------|
D|3----------3------------2----------2---------------------------------------|
A|----------------------3----------3-----------------------------------------|
E|---------------------------------------------------------------------------|


After playing that lead bit once there's a variation on the 2nd time like so..
e|-------------------------------------15--------15--------15----------------|
B|----1-3--------1-3----------1--12-13-----12-13-----12-13-------------------|
G|--2----------2------------0------------------------------------------------|
D|3----------3------------2--------------------------------------------------|
A|----------------------3----------------------------------------------------|
E|---------------------------------------------------------------------------|


This next bit has the Rhythm guitar on top and lead beneath it.
e|0----0----0----------------------------------------------------------------|
B|1----3----1---I'm not too sure about these chords--------------------------|
G|2----2----0----but they sound close/similar so-----------------------------|
D|3----3----2------just play around with them--------------------------------|
A|0----0----3----------------------------------------------------------------|
E|---------------------------------------------------------------------------|
 |                                                                           |
e|--------------------------------------------15----15----12----12----15-----|
B|-----------------------------------------------13----13----13----13----13--|
G|---------------------------------------------------------------------------|
D|--7-10--10/(12)~~--10-----7-9--9/(10)~~--9---------------------------------|
A|8-----------------------8--------------------------------------------------|
E|---------------------------------------------------------------------------|

e|15----13----13---------------------------------15-------15-----------------|
B|---13----13----13---repeat this 4 times--12-13----12-13----12~~~-----------|
G|--------------------with this variation------------------------------------|
D|----------------------on the 4th time--------------------------------------|
A|---------------------------------------------------------------------------|
E|---------------------------------------------------------------------------|


Then this again for the rhythm with the lead beneath.

e|0-----------0--------------------------------------------------------------|
B|1-----------1--------------------------------------------------------------|
G|2--------2--0--------------------------------------------------------------|
D|3--------3--2--------------------------------------------------------------|
A|0--------0--3--------------------------------------------------------------|
E|-----------------x2--------------------------------------------------------|
 |                                                                           |
e|--------------------15-------15-----------------------------------15----15-|
B|15------------13--------17-------17----------13-15----------13-------13----|
G|-----------12-----------------------------12-------------12----------------|
D|--------14-----------------------------14-------------14-------------------|
A|---------------------------------------------------------------------------|
E|---------------------------------------------------------------------------|

e|---12----12----15----15----13----13----------------------------------------|
B|13----13----13----13----13----13----13-------------------------------------|
G|---------------------------------------------------------------------------|
D|---------------------------------------------------------------------------|
A|---------------------------------------------------------------------------|
E|---------------------------------------------------------------------------|


The rhytm for this last bit is mainly these three chords which have been played
throughout the song

e|0----0----0-----------------------------3----------------------------------|
B|1----3----1---but it sounds like this---3-----Just mess around with them---|
G|2----2----0---chord is used a couple----4-----------and the rhythm---------|
D|3----3----2----times as well in this----5----------------------------------|
A|0----0----3---------last bit!-----------5----------------------------------|
E|----------------------------------------3----------------------------------|

Here's that cool lead bit played over the top of those chords.
e|---------------------------------------------?-15----15----12----12----?---|
B|---------------------------------------------?----13----13----13----13-?---|
G|---------------------------------------------?-------------------------?---|
D|--7-10--10/(12)~~--10-----7-9--9/(10)~~--9---?-I'm not sure about this-?---|
A|8-----------------------8--------------------?-so just play around with?---|
E|---------------------------------------------?-these notes or something?---|

e|--------------------------------------------15----15----12----12-----------|
B|-----------------------------------------------13----13----13----13--12-13-|
G|---------------------------------------------------------------------------|
D|--7-10--10/(12)~~--10-----7-9--9/(10)~~--9---------------------------------|
A|8-----------------------8--------------------------------------------------|
E|---------------------------------------------------------------------------|

e|15-------15--------------------------------------------------------------15|
B|---12-13----12~~--13-13-13-13-13-13-13-13-15-15-15-15-15-15-15-15--12-13---|
G|---------------------------------------------------------------------------|
D|---------------------------------------------------------------------------|
A|---------------------------------------------------------------------------|
E|---------------------------------------------------------------------------|

e|-------15~--------15~-------15~--------------------------------------------|
B|-12-13------12-13-----12-13------13-13-13-13-13-13-13-13-15-15-15-15-15-15-|
G|---------------------------------------------------------------------------|
D|---------------------------------------------------------------------------|
A|---------------------------------------------------------------------------|
E|---------------------------------------------------------------------------|

e|-------------15~-------15~-------15~-------15~-----------------------------|
B|15-15--12-13-----12-13-----12-13-----12-13------13-13-13-13-13-13-13-13-15-|
G|---------------------------------------------------------------------------|
D|---------------------------------------------------------------------------|
A|---------------------------------------------------------------------------|
E|---------------------------------------------------------------------------|

e|----------------------------15~-------15~-------15~-------15~--------------|
B|15-15-15-15-15-15-15--12-13-----12-13-----12-13-----12-13------13-13-13-13-|
G|---------------------------------------------------------------------------|
D|---------------------------------------------------------------------------|
A|---------------------------------------------------------------------------|
E|---------------------------------------------------------------------------|

e|-------------------------------------------15~-------15~--15-12------------|
B|13-13-13-13-15-15-15-15-15-15-15-15--12-13-----12-13------------15-13------|
G|----------------------------------------------------------------------12-14|
D|---------------------------------------------------------------------------|
A|---------------------------------------------------------------------------|
E|---------------------------------------------------------------------------|

e|---------------------------------------------------------------------------|
B|13-15-13~~~--13~~~---------------------------------------------------------|
G|---------------------------------------------------------------------------|
D|---------------------------------------------------------------------------|
A|---------------------------------------------------------------------------|
E|---------------------------------------------------------------------------|


The rhythm guitar finishes with this:
e|0-----------0--------------------------------------------------------------|
B|1-----------1--------------------------------------------------------------|
G|2--------2--0--------------------------------------------------------------|
D|3--------3--2--------------------------------------------------------------|
A|0--------0--3--------------------------------------------------------------|
E|---------------------------------------------------------------------------|





| /    slide up
| (10) don't play this note, just slide up to it.
| ~    vibrato
===============================================================================
Tap to rate this tab
 
# A B C D E F G H I J K L M N O P Q R S T U V W X Y Z