Song name
# A B C D E F G H I J K L M N O P Q R S T U V W X Y Z

Self-titled - Hell Is Other People tab

hey there ramrod here this is a wollongong/australia band so if u guys ever see
selftitled around, say hi 4 me .oh by the way hi sarah

i think this is how it goes hope u like it
X=muted

intro(repeat 4 times)
[--------------------------------------------------------------------------]
[--XX5XX5--XX4XX4--XX4XX4--XX4XX4------------------------------------------]
[--XXXXXX--XXXXXX--XX4XX4--XX4XX4------------------------------------------]
[--XX6XX6--XX6XX6--XX4XX4--XX4XX4--XX6XX6--XX6XX6--XX7XX7--XX6XX6----------]
[--XX4XX4--XX4XX4--XX2XX2--XX2XX2--XX6XX6--XX6XX6--XX7XX7--XX6XX6----------]
[----------------------------------XX4XX4--XX4XX4--XX5XX5--XX5XX5----------]

verse(let ring)
[--------------------------------------------------------------------------]
[--------------------------------------------------------------------------]
[--6------4----------------------------------------------------------------]
[--6------4------6-----7---------------------------------------------------]
[--4------2------6-----7---------------------------------------------------]
[----------------4-----5---------------------------------------------------]

verse(repeat 4 times)
[--------------------------------------------------------------------------]
[--------------------------------------------------------------------------]
[---XX6XX6XX6XX6--XX4XX4XX4XX4---------------------------------------------]
[---XX6XX6XX6XX6--XX4XX4XX4XX4--XX6XX6XX6XX6--XX7XX7XX7XX7-----------------]
[---XX4XX4XX4XX4--XX2XX2XX2XX2--XX6XX6XX6XX6--XX7XX7XX7XX7-----------------]
[-------------------------------XX4XX4XX4XX4--XX5XX5XX5XX5-----------------]

choras(repeat twice)
[--------------------------------------------------------------------------]
[--------------------------------------------------------------------------]
[-----------------------999999999999999------------------------------------]
[---44444446--77777777--999999999999999------------------------------------]
[---44444446--77777777--777777777777777------------------------------------]
[---22222224--55555555-----------------------------------------------------]


here u go have fun kids
Tap to rate this tab
# A B C D E F G H I J K L M N O P Q R S T U V W X Y Z