Song name
# A B C D E F G H I J K L M N O P Q R S T U V W X Y Z

Self - Out With A Bang tab

Self - Out With A Bang

Hear the song here { http://www.youtube.com/watch?v=xn49IDcTpFE }

This is tab is my first. I pretty sure this song has another guitar and a key board. I 
didn't tab out the solo. Not perfect, maybe not even close but here it is>>


Standard tuning
♪=87

 (intro)
Acoustic Guitar
e|-------------------------------------------------------------|(let notes
b|------------------------------------------------0---------0--|ring)
g|-----------0-----0-----------0-----0----------9-0-------9-0--|
d|--------5-----6-----------5-----6-----------9---------9------| x5
a|-----8-----------------8-----------------7---------7---------|
E|--6-----------------6-----------------0----------------------|

 (chorus)+(chorus 2)
Distortion Guitar
e|--------------------------------------|
b|--------------------------------------|
g|---66666666-33333333------------------|
d|---66666666-33333333-77777777-66666666|x4
a|---44444444-11111111-77777777-66666666|
E|---------------------55555555-44444444|
                           ____________________________
 (verse 1)                /             x4             \
e|-----------------------|-----------------------------|
b|-----------------------|-----------------------------|
g|-----------------------|66666-----------44444------2-|
d|------4-3-1--6xxx-7xxx-|66666--4-4-4/2--44444--4-4/2-|
a|-------------6xxx-7xxx-|44444--4-4-4/2--22222--2-4/0-|
E|---4---------4xxx-5xxx-|-------2-2-2/0---------2-2/0-|
 (verse 2)
e|---------------------------------------------|
b|------------------------------0----------0---|
g|--------0---------0---------9-9--------0-0---|
d|------5-5-------6-6-------9----------9-------| x4
a|----8---------8---------7----------7---------|
E|--6---------6---------0----------0-----------|

 (chorus ending)
e|-----------------------|
b|-----------------------|
g|-----------------------|
d|------4-3-1--6xxx-7xxx-|
a|-------------6xxx-7xxx-|
E|---4---------4xxx-5xxx-|


Lyrics

(verse 1)
There's a girl I know
She talks me in circles and
She's finding out now that
Nobody's home
She seems convinced that if
I were the last man on
Earth
I still wouldn't stand a chance

(chorus 2)
Let me comfort you
(It's the end of the world right now)
Please let me kiss your lips
(It's the last minute on earth)
Would you love me if
(It were the end of the world right now)
Let's pretend it is
(The last minute on earth right now)

(verse 1)
There was a movie and
song by McCartney
It was back in the 80's when Chevy Chase was cool
It was the end of the world
They were with russian girls
So he asked his American spy friend

(verse 2)
"Would you like to go out with a bang?"

x= muted note
/= slide
Tap to rate this tab
# A B C D E F G H I J K L M N O P Q R S T U V W X Y Z