Selig - Von Ewigkeit Zu Ewigkeit tab

Selig- Von Ewigkeit zu Ewigkeit (live version tvnoir)
Viel Spass beim Spielen! sollte zu 100% richtig sein.


Intro/Strophe                               

X8
e|-----------------------------------------------------------------------|
B|------------------7---7--5---------------------------------------------|
G|----0-----0------------------------------------------------------------|
D|---5------5-------7---7--5---------------------------------------------|
A|--2-------2-------5---5--3---------------------------------------------|
E|-0-----0--0--0---------------------------------------------------------|

Ref.
X2
e|-------3----1----------------------------------------------------------|
B|---2---3----1----------------------------------------------------------|
G|---3--------2----------------------------------------------------------|
D|---3--------3----------------------------------------------------------|
A|-------2----3----------------------------------------------------------|
E|-------3----1----------------------------------------------------------|

X2
e|----------3---3---3---3------------------------------------------------|
B|--3---2---3---3---3---3------------------------------------------------|
G|--2---3---------------1------------------------------------------------|
D|------3-------2--------------------------------------------------------|
A|----------2---3---2----------------------------------------------------|
E|----------3-------3---2------------------------------------------------|
X6
e|-----------------------------------------------------------------------|
B|------------------7---7--5---------------------------------------------|
G|----0-----0------------------------------------------------------------|
D|---5------5-------7---7--5---------------------------------------------|
A|--2-------2-------5---5--3---------------------------------------------|
E|-0-----0--0--0---------------------------------------------------------|
Ref.
X2
e|-------3----1----------------------------------------------------------|
B|---2---3----1----------------------------------------------------------|
G|---3--------2----------------------------------------------------------|
D|---3--------3----------------------------------------------------------|
A|-------2----3----------------------------------------------------------|
E|-------3----1----------------------------------------------------------|

X2


e|----------3---3---3---3-----------------------------------------------|
B|--3---2---3---3---3---3-----------------------------------------------|
G|--2---3---------------1-----------------------------------------------|
D|------3-------2-------------------------------------------------------|
A|----------2---3---2---------------------------------------------------|
E|----------3-------3---2-----------------------------------------------|




Bridge:
X3

e|-----0-------0------0----0-------------------------------------------|
B|------0-------0------0----0------------------------------------------|
G|--14------12-----11----9---------------------------------------------|
D|---------------------------------------------------------------------|
A|---------------------------------------------------------------------|
E|---------------------------------------------------------------------|


e|----0----0-----0-----0-----------------------------------------------|
B|-----0----0-----0-----0----------------------------------------------|
G|--7----5-----4-----2-------------------------------------------------|
D|---------------------------------------------------------------------|
A|---------------------------------------------------------------------|
E|---------------------------------------------------------------------|
X2
e|-----0-------0------0----0-------------------------------------------|
B|------0-------0------0----0------------------------------------------|
G|--14------12-----11----9---------------------------------------------|
D|---------------------------------------------------------------------|
A|---------------------------------------------------------------------|
E|---------------------------------------------------------------------|

X16
e|--1------------------------------------------------------------------|
B|--1------------------------------------------------------------------|
G|--2------------------------------------------------------------------|
D|--3------------------------------------------------------------------|
A|--3------------------------------------------------------------------|
E|--1------------------------------------------------------------------|


Ref:
X6
e|----------3---3---3---3-----------------------------------------------|
B|--3---2---3---3---3---3-----------------------------------------------|
G|--2---3---------------1-----------------------------------------------|
D|------3-------2-------------------------------------------------------|
A|----------2---3---2---------------------------------------------------|
E|----------3-------3---2-----------------------------------------------|
Tap to rate this tab
 
# A B C D E F G H I J K L M N O P Q R S T U V W X Y Z