Song name
# A B C D E F G H I J K L M N O P Q R S T U V W X Y Z

Sell Your Sky - 1-up tab

----------------------------------------------------------------------------

                             1-UP by Sell Your Sky

----------------------------------------------------------------------------

www.facebook.com/SellYourSky
sellyoursky.bandcamp.com/album/sell-your-sky
www.myspace.com/sellyoursky

Tuning: Drop C
CGCFAD

The rhythm guitar plays it first and ends on a bend.

D|-----------------------------------------------|
A|-----------------------------------------------|
F|-----------------------------------------------|
C|-----------------------------------------------|
G|-----------------12----------------------------|
C|-----11-12-11-12----11-12-11/4--4-5-4-0-2-4-0--|

D|-------------------------------------------------|
A|-------------------------------------------------|
F|-------------------------------------------------|
C|------------------------------------------4h5h7--|
G|-----------------12-------------------4h5h7------|
C|-----11-12-11-12----11-12-11/4--4-5-4------------|

D|-----------------------------------------------|
A|-----------------------------------------------|
F|-----------------------------------------------|
C|-----------------------------------------------|
G|-----------------12----------------------------|
C|-----11-12-11-12----11-12-11/4--4-5-4-0-2-4-0--|

D|-----------------------------------------------|
A|-----------------------------------------------|
F|-----------------------------------------------|
C|-----------------------------------------------|
G|-----------------12----------------------------|
C|-----11-12-11-12----11-12-11/4--4-5-4--1bend---|

The lead guitar plays it second and ends with a pinch harmonic

D|-----------------------------------------------|
A|-----------------------------------------------|
F|-----------------------------------------------|
C|-----------------------------------------------|
G|-----------------12----------------------------|
C|-----11-12-11-12----11-12-11/4--4-5-4-0-2-4-0--|

D|-------------------------------------------------|
A|-------------------------------------------------|
F|-------------------------------------------------|
C|------------------------------------------4h5h7--|
G|-----------------12-------------------4h5h7------|
C|-----11-12-11-12----11-12-11/4--4-5-4------------|

D|-----------------------------------------------|
A|-----------------------------------------------|
F|-----------------------------------------------|
C|-----------------------------------------------|
G|-----------------12----------------------------|
C|-----11-12-11-12----11-12-11/4--4-5-4-0-2-4-0--|

D|-----------------------------------------------|
A|-----------------------------------------------|
F|--------------------------------------3pinch---|
C|-----------------------------------------------|
G|-----------------12----------------------------|
C|-----11-12-11-12----11-12-11/4--4-5-4----------|
Tap to rate this tab
# A B C D E F G H I J K L M N O P Q R S T U V W X Y Z